» » »

Chains Of Humanity Tabs (ver.1)

Artists:  A B C D E F G H I J K L M N O P Q R S T U V W X Y Z # 

Chains Of Humanity Tabs (ver.1)

God Forbid
Rating:
4/5 (3 votes)

Hard to play? Try these video lessons and learn fast.
                Band- God Forbid
Song- Chains of Humanity

Tuning: Drop C (C G C F A D)

I'm missing the solo and the interlude, but when I have time I'll tab those later. 
This tab also uses relative timing on connected riffs(ie. the rhythm of each guitar
is based on the positions of notes on the other staff). Since this is my firs crack 
at this song, it may not be 100% correct, but if not, it's fairly close.

(Intro)3x
D |---6-5t6---8--------------------------------------------------||
A |o--------87-787----------------------------------------------o||
F |--------------------------------------------------------------||
C |----------------0000-0000-0000-8-7t8----10----5-55-5-55-5h88--||
G |o---------------0000-0000-0000-------109--910-5-55-5-55-5h88-o||
C |----------------0000-0000-0000----------------5-55-5-55-5h88--||
  |                .... .... ....                  ..   ..       ||
  |                                                              ||
D |--------------------------------------------------------------||
A |o--8-7t8---10------------------------------------------------o||
F |---------98--898----------------------------------------------||
C |-----------------0000-0000-0000-4-3t4---6-----1-11-1-11-1h44--||
G |o----------------0000-0000-0000-------65-565--1-11-1-11-1h44-o||
C |-----------------0000-0000-0000---------------1-11-1-11-1h44--||
                    .... .... ....                 ..   ..

(Verse)(both guitars)4x
D |---------------------------------------||
A |--------------------------------------o||
F |---------------------------------------||
C |--0--1-0-000-000-000--0--1-------------||
G |--0--1-0-000-000-000--0--1------------o||
C |--0--1-0-000-000-000--0--1-4h5-5/9b11--||
            ... ... ...

(Intro)2x
D |---6-5t6---8--------------------------------------------------||
A |o--------87-787----------------------------------------------o||
F |--------------------------------------------------------------||
C |----------------0000-0000-0000-8-7t8----10----5-55-5-55-5h88--||
G |o---------------0000-0000-0000-------109--910-5-55-5-55-5h88-o||
C |----------------0000-0000-0000----------------5-55-5-55-5h88--||
  |                .... .... ....                  ..   ..       ||
  |                                                              ||
D |--------------------------------------------------------------||
A |o--8-7t8---10------------------------------------------------o||
F |---------98--898----------------------------------------------||
C |-----------------0000-0000-0000-4-3t4---6-----1-11-1-11-1h44--||
G |o----------------0000-0000-0000-------65-565--1-11-1-11-1h44-o||
C |-----------------0000-0000-0000---------------1-11-1-11-1h44--||
                    .... .... ....                 ..   ..

(Verse)(both guitars)2x
D |---------------------------------------||
A |--------------------------------------o||
F |---------------------------------------||
C |--0--1-0-000-000-000--0--1-------------||
G |--0--1-0-000-000-000--0--1------------o||
C |--0--1-0-000-000-000--0--1-4h5-5/9b11--||
            ... ... ...

(Chorus)2x
D |--------------------------------------------------------------------------||
A |-------------------------------------------------------------------------o||
F |---7~----9-10~-12109~----1012~-----7~----9-10~----------------------------||
C |---x-----x-x---x-x-x-----x-x-------x-----x-x------------------------------||
G |---5~----7-8~--108-7~----8-10~-----5~----7-8~------7--87--50--8-7t8-10-7-o||
C |--------------------------------------------------------------------------||
  |                                                                          ||
D |--------------------------------------------------------------------------||
A |o------------------------------------------------------------------------o||
F |--------------------------------------------------------------------------||
C |---00000022333355332222223355555555000000223333333322222222---------------||
G |o----------------------------------------------------------0~------------o||
C |--------------------------------------------------------------------------||
       ..... . ... . . ..... . ....... ..... . ....... .......

(solo goes here, still working on it)

(Bridge)(guitar 2 just turns on and off volume here)
D |--------------------------------------------||
A |o------------------------------------------o||
F |--------------------------------------------||
C |--0--0000000000000000--0--0000000000000000--||
G |o-0--0000000000000000--0--0000000000000000-o||
C |--0--0000000000000000--0--0000000000000000--||
        ................     ................

(guitar 1 only)2x
D |-------------------------------------||
A |o-----------------------------------o||
F |-------------------------------------||
C |------6h76h7----6h7---6h7--6h7--2h3--||
G |o-----------------------------------o||
C |--0000------0000---000---00---00-----||
     ....      ....   ...   ..   ..

(guitar 1 only)2x
D |------------------------------------------||
A |o-----9h109h10----9h10---9h10--9h10--5h6-o||
F |------------------------------------------||
C |--0000--------0000----000----00----00-----||
G |o----------------------------------------o||
C |------------------------------------------||
     ....        ....    ...    ..    ..

(guitar 2 plays this behind both riffs)
D |-------------------------------------||
A |o-----------------------------------o||
F |-------------------------------------||
C |--0-0-000-000-0000-0-0-000-000-0000--||
G |o-0-0-000-000-0000-0-0-000-000-0000-o||
C |--0-0-000-000-0000-0-0-000-000-0000--||
       . ... ... ....   . ... ... ....

Fill(both guitars, you know where they go)
D |--------||
A |--------||
F |--------||
C |--------||
G |--------||
C |-3-5-7*-||

(both guitars)2x
D |-------------------------------------||
A |o-----------------------------------o||
F |-------------------------------------||
C |-------------------------------------||
G |o-----------------------------------o||
C |--00006h76h700006h70006h7006h7002h3--||
     ....      ....   ...   ..   ..

(guitar 1 1x, guitar 2 2x)
D |-------------------------------------||
A |o-----------------------------------o||
F |-------------------------------------||
C |--0-0-000-000-0000-0-0-000-000-0000--||
G |o-0-0-000-000-0000-0-0-000-000-0000-o||
C |--0-0-000-000-0000-0-0-000-000-0000--||
       . ... ... ....   . ... ... ....

(guitar 1 1x)
D |-------------------------------------||
A |o-----------------------------------o||
F |-------------------------------------||
C |-------------------------------------||
G |o-----------------------------------o||
C |--00006h76h700006h70006h7006h7002h3--||
     ....      ....   ...   ..   ..

(interlude goes here, still working on it)

(Chorus)2x
D |--------------------------------------------------------------------------||
A |-------------------------------------------------------------------------o||
F |---7~----9-10~-12109~----1012~-----7~----9-10~----------------------------||
C |---x-----x-x---x-x-x-----x-x-------x-----x-x------------------------------||
G |---5~----7-8~--108-7~----8-10~-----5~----7-8~------7--87--50--8-7t8-10-7-o||
C |--------------------------------------------------------------------------||
  |                                                                          ||
D |--------------------------------------------------------------------------||
A |o------------------------------------------------------------------------o||
F |--------------------------------------------------------------------------||
C |---00000022333355332222223355555555000000223333333322222222---------------||
G |o----------------------------------------------------------0~------------o||
C |--------------------------------------------------------------------------||
       ..... . ... . . ..... . ....... ..... . ....... .......

(guitar 1 only)2x
D |-------------------------------------||
A |o-----------------------------------o||
F |-------------------------------------||
C |------6h76h7----6h7---6h7--6h7--2t3--||
G |o-----------------------------------o||
C |--0000------0000---000---00---00-----||
     ....      ....   ...   ..   ..

(guitar 1 only)2x
D |------------------------------------------||
A |o-----9h109h10----9h10---9h10--9h10--5t6-o||
F |------------------------------------------||
C |--0000--------0000----000----00----00-----||
G |o----------------------------------------o||
C |------------------------------------------||
     ....        ....    ...    ..    ..

(both guitars 2x)
D |-------------------------------------||
A |o-----------------------------------o||
F |-------------------------------------||
C |--0-0-000-000-0000-0-0-000-000-0000--||
G |o-0-0-000-000-0000-0-0-000-000-0000-o||
C |--0-0-000-000-0000-0-0-000-000-0000--||
       . ... ... ....   . ... ... ....

D |-------------------------------------||
A |o-----------------------------------o||
F |-------------------------------------||
C |------6h76h7----6h7---6h7--6h7--2t3--||
G |o-----------------------------------o||
C |--0000------0000---000---00---00-----||
  |  ....      ....   ...   ..   ..     ||
  |                                     ||
D |-------------------------------------||
A |o-----------------------------------o||
F |-------------------------------------||
C |-------------------------------------||
G |o-----7h87h8----7h8---7h8--7h8--3t4-o||
C |--0000------0000---000---00---00-----||
     ....      ....   ...   ..   ..


D |-----------------------------------------------||
A |o-----9h10-9h10-----9h10----9h10---9h10---5t6-o||
F |-----------------------------------------------||
C |--0000----------0000-----000-----00-----00-----||
G |o---------------------------------------------o||
C |-----------------------------------------------||
  |  ....          ....     ...     ..     ..     ||
  |                                               ||
D |-----------------------------------------------||
A |o---------------------------------------------o||
F |------10h1110h11----10h11---10h11--10h11--6t7--||
C |--0000----------0000-----000-----00-----00-----||
G |o---------------------------------------------o||
C |-----------------------------------------------||
     ....          ....     ...     ..     ..

/-slide
b-bend
h-hammer on
p-pulloff
t-triad
*-pick harmonic
x-mute string
~-let note ring
|o-repeat start
o||-repeat end
.-palm mute
            
Hard to play? Try these video lessons and learn fast. | Correct




comments powered by Disqus
↑ Back to top | Tablatures and chords are parodies/interpretations of the original songs. You may use it for private study, scholarship, research or language learning purposes only