>
 >
Better Days

Better Days Bass Tabs

God Forbid - Better Days chords, tabs, tablatures, lyrics

Guitar lessons | Add/correct | Request | Top 50 tabs Artists:  A B C D E F G H I J K L M N O P Q R S T U V W X Y Z 0-9

Better Days Bass Tabs – God Forbid

CD, Sheet music, Poster

Do you like Better Days? Share with your friends now
Bass Tabs
Band- God Forbid
Song- Better Days

Tuning: D G C F

Intro (0:00)
F |------|
C |------|
G |------|
D |--5~--|

Riff 1 (0:05)		(0:14)
F |--------------------|----------------------------------|
C |--------------------|----------------------------------|
G |--------------------|-------------------3-2-0-2h3p2p0--|
D |--000-000--000-000--|--000-000--000-000----------------|

Riff 2 (0:17)
F |-------------------------------------------------------------|
C |-------------------------------------------------------------|
G |------2h3p2p0-----2h3p2p0h2h3-----2h3p2p0-----3-2-0-2h3p2p0--|
D |--000---------000-------------000---------000----------------|

Fill 1 (0:29)
F |----------------------|
C |----------------------|
G |----------------------|
D |--000-000-000-000-0~--|

Riff 3 (0:37)
F |------------------------------------------------------------|
C |--------------------------7-9-------------------------------|
G |------5-3-5-----5-3-5-------------5-3-5---------------------|
D |--000-------000-------000-----000--------000-3-5-0-555-333--|

F |---------------------------------------------------------|
C |------7-5-7-----7-5-7-------------7-5------7-5-5h7p5p4~--|
G |--------------------------3-5----------------------------|
D |--000-------000-------000-----000-----000----------------|

Riff 4 (0:48)
F |-----------------------------------------------|
C |----------------7-9----------------------------|
G |-----------------------------------------------|
D |--000-0-000-000-----000-0-000-333-555-333-222--| x2

F |---------------------------------------------------------|
C |------7-5-7-----7-5-7-------------7-5------7-5-5h7p5p4~--|
G |--------------------------3-5----------------------------|
D |--000-------000-------000-----000-----000----------------|

Riff 1 (1:09)
Riff 2 (1:15)
Riff 4 (1:21)
Riff 3 (1:39)

Riff 5 (1:51)
F |-------------------------------|
C |-------------------------------|
G |------------2-3-----------2-3--|
D |--5~-7-8-3~-----5~-7-8-3~------|

F |---------------------------------------------|
C |---------------------------------------------|
G |--------------------------------------22-33--|
D |--5555-5555-5555-77-88-3333-3333-3333--------|

F |---------------------------------------------|
C |---------------------------------------------|
G |---------------------------------------------|
D |--5555-5555-5555-77-88-3333-3333-3333-22-00--|

Fill 2 (2:15)
F |---------------------------|
C |---------------------------|
G |---------------------------|
D |--000-000-000-000-000-000--|

Riff 6 (2:20)
F |-----------------------------------------------------|
C |-----7---5--------------------7---5---------7-----5--|
G |-----------------------------------------------------|
D |--00---0---000-000-222-333-00---0---000-000---000----|

F |---------------------------------------------------|
C |-----7---5--------------------7---5----------------|
G |---------------------------------------------------|
D |--00---0---000-000-222-333-00---0---000-000-00-11--|

Fill 2 (2:33) x2 (i think)
Riff 6 (2:44)
Riff 5 (2:57) (play the first part twice)
Riff 1 (3:33)
Riff 2 (3:39)





Comments


Popular God Forbid tabs & chords
Antihero Tabs
Antihero (Intro) Tabs
Century Fades Tabs
Divinity Intro Tabs
End Of The World Intro Tabs
End Of The World Intro 1 Tabs
Living Nightmare Tabs
No Sympathy Tabs
Precious Lie Tabs
Precious Lie Intro 1 Tabs


Song lyrics



↑ Back to top | Tablatures and chords are parodies/interpretations of the original songs. You may use it for private study, scholarship, research or language learning purposes only
© 2014 AZChords.com Contact us | Privacy policy | DMCA | Add/correct tabs | Request tabs | Top 50 tabs