>
 >
Antihero 2

Antihero 2 Guitar Tabs

God Forbid - Antihero 2 chords, tabs, tablatures, lyrics

Guitar lessons | Add/correct | Request | Top 50 tabs Artists:  A B C D E F G H I J K L M N O P Q R S T U V W X Y Z 0-9

Antihero 2 Guitar Tabs – God Forbid

CD, Sheet music, Poster

Do you like Antihero 2? Share with your friends now
Bass TabsTabsTabs v2Tabs v3Tabs v4
Anti-Hero


(A)           2x                     2x then (A)...then you go here
|-----------------------------|--------------------|-------------|---------|
|-----------------------------|--------------------|-------------|---------|
|-----------------------------|---3-2--------3-2---|-------------|---------|
|-----8-7-----------8--5--7---|-------3----------3-|-------------|---------|
|---------8-------------------|-1----------1-------|1-1-1-1-3-0--|10-10-10-|
|--5-----------5-5~-----------|-1--------0-1-------|1-1-1-1-3-0--|---------|


|--------------------------------------------------------------------------|
|--------------------------------------------------------------------------|
|------------------------------12-14b-14br--12-14-14b-14br-12------12t3p0--|
|----------12-12-12-14-14-14-----------------------------------13~---------|
|13-13-13------------------------------------------------------------------|
|--------------------------------------------------------------------------|


|--------------------------------------------------------------------------|
|-------------------------------------------------------------18-----------|
|-12t3p0--12t3p0--12t3p0--14t7p0--14t7p0--14t7p0--14t7p0--17b-----17~--15--|
|--------------------------------------------------------------------------|
|--------------------------------------------------------------------------|
|--------------------------------------------------------------------------|

                            2x         p.m.........;     2x
|----------------------|-----------------------------|---------------------|
|-15h17p15-------------|-----------------------------|---------------------|
|----------17--15--17~-|-----------------------------|---------------------|
|----------------------|-----------------------------|------8-7------------|
|----------------------|------1-1-1-1-1--------------|----------8----------|
|----------------------|-15\--1-1-1-1-1-1-1-1-1-1-1--|-3/5---------3-3/5~--|

                              p.m...;                         2x
|-------|-------------------------------------------------|----------------|
|-------|-------------------------------------------------|----------------|
|-------|-----------3-2---0-2-------------------3-2---0-2-|----------------|
|-8-5-7-|---------------3---------------------------3-----|-------8-7------|
|-------|-1-1-1-1-1-------------------1-1-1-1-1-----------|------------8---|
|-------|-1-1-1-1-1------------1-1-1--1-1-1-1-1-----------|-1-3/5----------|

                  3x
|-------------|------------------------------------------------------------|
|-------------|------------------------------------------------------------|
|-------------|------------------------------------------------------------|
|-----8-5-7---|------------4-4-4------------5-5-5------------4-4-4---------|
|-------------|-1----------------------------------------------------------|
|-3/5---------|-1-0-0-0-0---------1-0-0-0-0--------1-0-0-0-0-------1-0-0-0-|


|-------------|------------------------------------------------------------|
|-------------|------------------------------------------------------------|
|-------------|-----------------------------------10p9-7-9-10/12-12~-------|
|-------------|-----------7-8------7~--------------------------------------|
|-0--5-5------|-1-------------7-8------------------------------------------|
|-0------3-3~-|-1-0-0-0-0---------------1-0-0-0-0--------------------------|

e---------------------------------------|--------------------------|---------|
B---------------------------------------|--------------------------|---------|
G---------------------------------------|--------------------------|---------|
D---------------------------------------|------8-7-5-------7~------|---------|
A---------------------------------------|-1----------8-7-8---------|-3/5-----|
D--5-5-5-8-5-5-7-5--5-3/5-5-5-8-5-5-7-5-|-1------------------------|-3/5-5-5-|

---------------------------------------------------------------------------|
---------------------------------------------------------------------------|
---------------------------------------------------------------------------|
-----------------------------------------------------------8-7-5-------7~--|
-------------3/5-----------------3/5------------------1----------8-7-8-----|
-8-5-5-7-5-5-3/5-5-5-8-5-5-7-5-5-3/5-5-5-8-5-5-7-5-5--1--------------------|

|-------------------------------------------------|--------------------------|
|-------------------------------------------------|--------------------------|
|---------------------------------------------0---|--------------------------|
|---------------------------------------------0---|--------------------------|
|--5-5-1-3--0-0-8-0-0-8-7--0-0-10-10-12-13-13-----|--5-5-1-3--0-0-8-0-0-8-7--|
|--5-5-1-3--0-0-8-0-0-8-7--0-0-10-10-12-13-13-----|--5-5-1-3--0-0-8-0-0-8-7--|


                                                       2X
|-----------------------------------|-------------|-------------------------|
|-----------------------------------|-------------|-------------------------|
|-----------------------------------|-------------|---3-2------------3-2----|
|-----------------------------------|-------------|-------3--------------3--|
|-0-0-10-10-12-13-----18-----18-17~-|-5-5-5-5-3-5-|-1----------1------------|
|-0-0-10-10-12-13-0-0----0-0--------|-5-5-5-5-3-5-|-1--------0-1-0-0--------|





Comments


Popular God Forbid tabs & chords
Antihero Tabs
Antihero 4 Tabs
Crucify Your Beliefs Intro Tabs
Crucify Your Beliefs Intro 2 Tabs
End Of The World 1 Tabs
End Of The World Intro 1 Tabs
Fallen Hero Tabs
To The Fallen Hero Intro Tabs
Washed Out World Tabs
Weather The Storm Tabs


Song lyrics



↑ Back to top | Tablatures and chords are parodies/interpretations of the original songs. You may use it for private study, scholarship, research or language learning purposes only
© 2014 AZChords.com Contact us | Privacy policy | DMCA | Add/correct tabs | Request tabs | Top 50 tabs