>
 >
A Few Good Men

A Few Good Men Guitar Tabs

God Forbid - A Few Good Men chords, tabs, tablatures, lyrics

Guitar lessons | Add/correct | Request | Top 50 tabs Artists:  A B C D E F G H I J K L M N O P Q R S T U V W X Y Z 0-9

A Few Good Men Guitar Tabs – God Forbid

CD, Sheet music, Poster

Do you like A Few Good Men? Share with your friends now
Tabs
    d|--------------------------------------------------------------|
    A|--------------------------------------------------------------|
GTR F|-----------------------6----------------------6---------------|
 1  C|------7-8p7------7-6h7---8-7h8------7-8p7-------8-7-5-7-5---7-| 1,3
    G|-0000-------0000---------------0000-------0-0-------------8---|
    C|-0000-------0000---------------0000-------0-0-----------------|
       PMPM       PMPM               PMPM       P M

    d|---------------------------------------------------------------|
    A|---------------------------------------------------------------|
GTR F|-----------------------------------------------6---------------|
 2  C|------7-8p7------7-6h7-6------------7-8p7--------8-7-5-7-5---7-| 1,3
    G|-0000-------0000---------8-7h8-0000-------0-0--------------8---|
    C|-0000-------0000---------------0000-------0-0------------------|
       PMPM       PMPM               PMPM       P M

    d|--------------------------------------------------------------|
    A|--------------------------------------------------------------|
GTR F|-----------------------6--------------------------------------|
 1  C|------7-8p7------7-6h7---8-7h8------7-8p7---------------------| 2
    G|-0000-------0000---------------0000-------0-0-5---------------|
    C|-0000-------0000---------------0000-------0-0---6-5-3-5-3-0-1-|
       PMPM       PMPM               PMPM       P M

    d|--------------------------------------------------------------|
    A|--------------------------------------------------------------|
GTR F|--------------------------------------------------------------|
 2  C|------7-8p7------7-6h7-6------------7-8p7---------------------| 2
    G|-0000-------0000---------8-7h8-0000-------0-0-5---------------|
    C|-0000-------0000---------------0000-------0-0---6-5-3-5-3-0-1-|
       PMPM       PMPM               PMPM       P M

    d|----------------------------------------------|
    A|----------------------------------------------|
GTR F|-----------------------6----------------------|
 1  C|------7-8p7------7-6h7---8-7h8------7-8p7-----| 4
    G|-0000-------0000---------------0000-------0-0-|
    C|-0000-------0000---------------0000-------0-0-|
       PMPM       PMPM               PMPM       P M

    d|----------------------------------------------|
    A|----------------------------------------------|
GTR F|----------------------------------------------|
 2  C|------7-8p7------7-6h7-6------------7-8p7-----| 4
    G|-0000-------0000---------8-7h8-0000-------0-0-|
    C|-0000-------0000---------------0000-------0-0-|
       PMPM       PMPM               PMPM       P M

    d|-----------------|
    A|-----------------|
GTR F|-----------------|
 1  C|-----------------|
    G|-5---------------|
    C|---6-5-3-5-3-0-1-|

    d|-----------------|
    A|-----------------|
GTR F|-----------------|
 2  C|-----------------|
    G|-----------------|
    C|-----------------|

    d|--------------------|
    A|--------------------|
GTR F|--------------------|
 1  C|--------------------|
    G|--------------------|
    C|--------------------|

    d|---------------------|
    A|---------------------|
GTR F|---------------------|
 2  C|---------------------|
    G|-5-------------------|
    C|---6-5-3-5-3-0--1BD--|

    d|-----------------------------------------------------------------|
    A|-----------------------------------------------------------------|
GTR F|-----------------------------------------------------------------|
1+2 C|------------------------------------------------5-5-5-5-8-8-8-7--| 1,3
    G|-0--0-0-0-0-0-0-0-0-0-0-0-0-0-1BD-0-1h4-1p0-0-0-3-3-3-3-6-6-6-5--|
    C|-0--0-0-0-0-0-0-0-0-0-0-0-0-0-----0---------0-0------------------|
          P M P M P M P M P M P MPM    PM         P M

BD = BEND DOWN

    d|----------------------------------------------------------|
    A|----------------------------------------------------------|
GTR F|----------------------------------------------------------|
1+2 C|----------------------------------------------------------| 2,4
    G|-0--0-0-0-0-0-0-0-0-0-0-0-0-0-0---0---------3-3-3-3-6-6-6-|
    C|-0--0-0-0-0-0-0-0-0-0-0-0-0-0-0-0-0-7p6-3p0-3-3-3-3-6-6-6-|
          P M P M P M P M P M P M P M  PM  

    d|------------------------------------------------------------|
    A|------------------------------------------------------------|
GTR F|------------------------------------------------------------|
 1  C|----5---5---------5-----5--------7---7---------7-----9h10p9-|
    G|------7---7-7-7-7---7-7---7-5------8---8-8-8-8---8-8--------|
    C|------------------------------------------------------------|
          P M P M P M P M P M P M P M P M P M P M P MPM

    d|-----------------0------------------------------------------|
    A|-----------------0------------------------------------------|
GTR F|-----------------4--------------10--------------10----------|
 2  C|-2----------------------------------------------------------|
    G|-2------------------------------8---------------8-----------|
    C|-2----------------------------------------------------------|

    d|-----------------------------------------------------------|
    A|-----------------------------------------------------------|
GTR F|-----------------------------------------------------------|
 1  C|-----5---5---------5-----5-----------------------6----3----|
    G|-------7---7-7-7-7---7-7---7-5-------------0-0---6----3----|
    C|-------------------------------1BD-0-1-0-1-0-0-0-6----3----|
           P M P M P M P M P M P MPM             P M

    d|-----------------0-----------------------------------------|
    A|-----------------0-----------------------------------------|
GTR F|-----------------4-----------------------------------------|
 2  C|-2-----------------------------------------------6----3----|
    G|-2-----------------------------------------0-0---6----3----|
    C|-2-----------------------------1BD-0-1-0-1-0-0-0-6----3----|

    d|------------------------------------------------------------|
    A|------------------------------------------------------------|
GTR F|------------------------------------------------------------|
 1  C|----5---5---------5-----5--------7---7---------7-----9h10p9-|
    G|------7---7-7-7-7---7-7---7-5------8---8-8-8-8---8-8--------|
    C|------------------------------------------------------------|
          P M P M P M P M P M P M P M P M P M P M P MPM

    d|---------------------------------------------------------------|
    A|---------------------------------------------------------------|
GTR F|---------------------------------------------------------------|
 2  C|-2------------------------------3------------------------------|
    G|-2--2-2-2-2-2-2-2-2-2-2-2-2-2-2-3--3-3-3-3-3-3-3-3-3-3-3-3-3-3-|
    C|-2--2-2-2-2-2-2-2-2-2-2-2-2-2-2-3--3-3-3-3-3-3-3-3-3-3-3-3-3-3-|
    	  P M P M P M P M P M P M P M    P M P M P M P M P M P M P

    d|-----------------------------------------------------------|
    A|-----------------------------------------------------------|
GTR F|-----------------------------------------------------------|
 1  C|-----5---5---------5-----5-----------------------6----3----|
    G|-------7---7-7-7-7---7-7---7-5-------------0-0---6----3----|
    C|-------------------------------1BD-0-1-0-1-0-0-0-6----3----|
           P M P M P M P M P M P M PM            P M
                                                 
    d|----------------------------------------------------------|
    A|----------------------------------------------------------|
GTR F|----------------------------------------------------------|
 2  C|-2----------------------------------------------6----3----|
    G|-2--2-2-2-2-2-2-2-2-2-2-2-2-2-------------0-0---6----3----|
    C|-2--2-2-2-2-2-2-2-2-2-2-2-2-2-1BD-0-1-0-1-0-0-0-6----3----|
          P M P M P M P M P M P MPM             P M
                                                 
    d|--------------------------------------------------------------|
    A|--------------------------------------------------------------|
GTR F|-----------------------6----------------------6---------------|
 1  C|------7-8p7------7-6h7---8-7h8------7-8p7-------8-7-5-7-5---7-| 
    G|-0000-------0000---------------0000-------0-0-------------8---|
    C|-0000-------0000---------------0000-------0-0-----------------|
       PMPM       PMPM               PMPM       P M

    d|---------------------------------------------------------------|
    A|---------------------------------------------------------------|
GTR F|-----------------------------------------------6---------------|
 2  C|------7-8p7------7-6h7-6------------7-8p7--------8-7-5-7-5---7-| 
    G|-0000-------0000---------8-7h8-0000-------0-0--------------8---|
    C|-0000-------0000---------------0000-------0-0------------------|
       PMPM       PMPM               PMPM       P M

    d|----------------------------------------------|
    A|----------------------------------------------|
GTR F|-----------------------6----------------------|
 1  C|------7-8p7------7-6h7---8-7h8------7-8p7-----| 
    G|-0000-------0000---------------0000-------0-0-|
    C|-0000-------0000---------------0000-------0-0-|
       PMPM       PMPM               PMPM       P M

    d|----------------------------------------------|
    A|----------------------------------------------|
GTR F|----------------------------------------------|
 2  C|------7-8p7------7-6h7-6------------7-8p7-----| 
    G|-0000-------0000---------8-7h8-0000-------0-0-|
    C|-0000-------0000---------------0000-------0-0-|     

    d|-----------------|
    A|-----------------|
GTR F|-----------------|
 1  C|-----------------|
    G|-5---------------|
    C|---6-5-3-5-3-0-1-|

    d|-----------------|
    A|-----------------|
GTR F|-----------------|
 2  C|-----------------|
    G|-----------------|
    C|-----------------|

    d|--------------------|
    A|--------------------|
GTR F|--------------------|
 1  C|--------------------|
    G|--------------------|
    C|--------------------|

    d|--------------------|
    A|--------------------|
GTR F|--------------------|
 2  C|--------------------|
    G|-5------------------|
    C|---6-5-3-5-3-0--1BD-|

    d|-----------------------------------------------------------------|
    A|-----------------------------------------------------------------|
GTR F|-----------------------------------------------------------------|
1+2 C|------------------------------------------------5-5-5-5-8-8-8-7--| 
    G|-0--0-0-0-0-0-0-0-0-0-0-0-0-0-1BD-0-1h4-1p0-0-0-3-3-3-3-6-6-6-5--|
    C|-0--0-0-0-0-0-0-0-0-0-0-0-0-0-----0---------0-0------------------|
          P M P M P M P M P M P MPM    PM         P M

    d|----------------------------------------------------------|
    A|----------------------------------------------------------|
GTR F|----------------------------------------------------------|
1+2 C|----------------------------------------------------------| 
    G|-0--0-0-0-0-0-0-0-0-0-0-0-0-0-0---0---------3-3-3-3-6-6-6-|
    C|-0--0-0-0-0-0-0-0-0-0-0-0-0-0-0-0-0-7p6-3p0-3-3-3-3-6-6-6-|
          P M P M P M P M P M P M P M  PM  

    d|-----------------------------------------------------------------|
    A|-----------------------------------------------------------------|
GTR F|-----------------------------------------------------------------|
1+2 C|------------------------------------------------5-5-5-5-8-8-8-7--| 
    G|-0--0-0-0-0-0-0-0-0-0-0-0-0-0-1BD-0-1h4-1p0-0-0-3-3-3-3-6-6-6-5--|
    C|-0--0-0-0-0-0-0-0-0-0-0-0-0-0-----0---------0-0------------------|
          P M P M P M P M P M P MPM    PM         P M

    d|----------------------------------------------------------------|
    A|----------------------------------------------------------------|
GTR F|-7-7-7-7-10-10-10-10-10-10-10-10-10-10-10-10-10-5-5-5-5-8-8-8-7-|
 2  C|----------------------------------------------------------------|
    G|-5-5-5-5-8--8--8--8--8--8--8--8--8--8--8--8--8--3-3-3-3-6-6-6-5-|
    C|----------------------------------------------------------------|

    d|----------------------------------------------------------|
    A|----------------------------------------------------------|
GTR F|----------------------------------------------------------|
 1  C|----------------------------------------------------------| 
    G|-0--0-0-0-0-0-0-0-0-0-0-0-0-0-0---0---------3-3-3-3-6-6-6-|
    C|-0--0-0-0-0-0-0-0-0-0-0-0-0-0-0-0-0-7p6-3p0-3-3-3-3-6-6-6-|
          P M P M P M P M P M P M P M  PM  

    d|--------------------------------------------------------|
    A|-----------------20-20-20-20-20-20-20-20-20-20-20-20-20-|
GTR F|-7-7-7-7-7-7-7-7----------------------------------------|
 2  C|-----------------17-17-17-17-17-17-17-17-17-17-17-17-17-|
    G|-5-5-5-5-5-5-5-5----------------------------------------|
    C|--------------------------------------------------------|

    d|------------------------------------------------------------|
    A|------------------------------------------------------------|
GTR F|------------------------------------------------------------|
 1  C|----5---5---------5-----5--------7---7---------7-----9h10p9-|
    G|------7---7-7-7-7---7-7---7-5------8---8-8-8-8---8-8--------|
    C|------------------------------------------------------------|
          P M P M P M P M P M P M P M P M P M P M P MPM

    d|-----------------0------------------------------------------|
    A|-----------------0------------------------------------------|
GTR F|-----------------4--------------10--------------10----------|
 2  C|-2----------------------------------------------------------|
    G|-2------------------------------8---------------8-----------|
    C|-2----------------------------------------------------------|

    d|-----------------------------------------------------------|
    A|-----------------------------------------------------------|
GTR F|-----------------------------------------------------------|
 1  C|-----5---5---------5-----5-----------------------6----3----|
    G|-------7---7-7-7-7---7-7---7-5-------------0-0---6----3----|
    C|-------------------------------1BD-0-1-0-1-0-0-0-6----3----|
           P M P M P M P M P M P MPM             P M

    d|-----------------0-----------------------------------------|
    A|-----------------0-----------------------------------------|
GTR F|-----------------4-----------------------------------------|
 2  C|-2-----------------------------------------------6----3----|
    G|-2-----------------------------------------0-0---6----3----|
    C|-2-----------------------------1BD-0-1-0-1-0-0-0-6----3----|

    d|------------------------------------------------------------|
    A|------------------------------------------------------------|
GTR F|------------------------------------------------------------|
 1  C|----5---5---------5-----5--------7---7---------7-----9h10p9-|
    G|------7---7-7-7-7---7-7---7-5------8---8-8-8-8---8-8--------|
    C|------------------------------------------------------------|
          P M P M P M P M P M P M P M P M P M P M P MPM

    d|---------------------------------------------------------------|
    A|---------------------------------------------------------------|
GTR F|---------------------------------------------------------------|
 2  C|-2------------------------------3------------------------------|
    G|-2--2-2-2-2-2-2-2-2-2-2-2-2-2-2-3--3-3-3-3-3-3-3-3-3-3-3-3-3-3-|
    C|-2--2-2-2-2-2-2-2-2-2-2-2-2-2-2-3--3-3-3-3-3-3-3-3-3-3-3-3-3-3-|
    	  P M P M P M P M P M P M P M    P M P M P M P M P M P M P

    d|-----------------------------------------------------------|
    A|-----------------------------------------------------------|
GTR F|-----------------------------------------------------------|
 1  C|-----5---5---------5-----5-----------------------6----3----|
    G|-------7---7-7-7-7---7-7---7-5-------------0-0---6----3----|
    C|-------------------------------1BD-0-1-0-1-0-0-0-6----3----|
           P M P M P M P M P M P M PM            P M
                                                 
    d|----------------------------------------------------------|
    A|----------------------------------------------------------|
GTR F|----------------------------------------------------------|
 2  C|-2----------------------------------------------6----3----|
    G|-2--2-2-2-2-2-2-2-2-2-2-2-2-2-------------0-0---6----3----|
    C|-2--2-2-2-2-2-2-2-2-2-2-2-2-2-1BD-0-1-0-1-0-0-0-6----3----|
          P M P M P M P M P M P MPM             P M
   
    d|--------------------------------------------------------------|
    A|--------------------------------------------------------------|
GTR F|-----------------------6----------------------6---------------|
 1  C|------7-8p7------7-6h7---8-7h8------7-8p7-------8-7-5-7-5---7-| 1,3
    G|-0000-------0000---------------0000-------0-0-------------8---|
    C|-0000-------0000---------------0000-------0-0-----------------|
       PMPM       PMPM               PMPM       P M

    d|---------------------------------------------------------------|
    A|---------------------------------------------------------------|
GTR F|-----------------------------------------------6---------------|
 2  C|------7-8p7------7-6h7-6------------7-8p7--------8-7-5-7-5---7-| 1,3
    G|-0000-------0000---------8-7h8-0000-------0-0--------------8---|
    C|-0000-------0000---------------0000-------0-0------------------|
       PMPM       PMPM               PMPM       P M

    d|--------------------------------------------------------------|
    A|--------------------------------------------------------------|
GTR F|-----------------------6--------------------------------------|
 1  C|------7-8p7------7-6h7---8-7h8------7-8p7---------------------| 2,4
    G|-0000-------0000---------------0000-------0-0-5---------------|
    C|-0000-------0000---------------0000-------0-0---6-5-3-5-3-0-1-|
       PMPM       PMPM               PMPM       P M

    d|--------------------------------------------------------------|
    A|--------------------------------------------------------------|
GTR F|--------------------------------------------------------------|
 2  C|------7-8p7------7-6h7-6------------7-8p7---------------------| 2,4
    G|-0000-------0000---------8-7h8-0000-------0-0-5---------------|
    C|-0000-------0000---------------0000-------0-0---6-5-3-5-3-0-1-|
       PMPM       PMPM               PMPM       P M

    d|----------------------|
    A|----------------------|
GTR F|----------------------|
1+2 C|-6--6--5--6--5--3--1--|
    G|-4--6--5--6--5--3--1--|
    C|----6--5--6--5--3--1--|

    d|-----------------------------------|
    A|-4------4------4------2------2-----|
GTR F|-3------3------3------1------1--1--|
 1  C|-4------4------4------0------0--0--|
    G|-5------5------5------2------2--0--|
    C|-----------------------------------|

    d|-----------------------------------|
    A|-----------------------------------|
GTR F|-----------------------------------|
 2  C|-----------------------------------|
    G|----1-1----1-1----1-1----1-1-------|
    C|----1-1----1-1----1-1----1-1-------|
          P M    P M    P M    P M        


    d|--------------------------------------------------------------|
    A|-3------------------------------------------------------------|
GTR F|-2-------------------------------2222-3333-2222-3333------6PH-|
 1  C|-3---------------------------------------------------3333-----| 1,3
    G|-4-------1-1-1-1-1-1-1-1-1-1-1-1------------------------------|
    C|---------1-1-1-1-1-1-1-1-1-1-1-1------------------------------|
               P M P M P M P M P M P M

PH = PINCHED HARMONIC

    d|---------------------------------------------------------------|
    A|---------------------------------------------------------------|
GTR F|---------------------------------2222-3333-2222-3333-----------|
 2  C|-----------------------------------------------------3333------| 1,3
    G|----1-1--1-1-1-1-1-1-1-1-1-1-1-1--------------------------4444-|
    C|----1-1--1-1-1-1-1-1-1-1-1-1-1-1-------------------------------|
          P M  P M P M P M P M P M P M 
 
    d|-------------------------------------------------------------|
    A|-3-----------------------------------------------------------|
GTR F|-2-------------------------------33333333-2222-3333----------|
 1  C|-3--------------------------------------------------3333-----| 2,4
    G|-4-------1-1-1-1-1-1-1-1-1-1-1-1-------------------------3BD-|
    C|---------1-1-1-1-1-1-1-1-1-1-1-1-----------------------------|
               P M P M P M P M P M P M

    d|-------------------------------------------------------------|
    A|-------------------------------------------------------------|
GTR F|-------------------------------------------------------------|
 2  C|---------------------------------55555555-4444-5555----------| 2,4
    G|----1-1--1-1-1-1-1-1-1-1-1-1-1-1--------------------5555-3BD-|
    C|----1-1--1-1-1-1-1-1-1-1-1-1-1-1-----------------------------|
          P M  P M P M P M P M P M P M 

    d|-----------------------------------------|
    A|-----------------------------------------|
GTR F|----------10----------------------5* SDB-|
1+2 C|-0---------------------8--7--8--5--------| x4
    G|-0--0--0--8---0--0--0--8--7--8--5--------|
    C|-0--0--0------0--0--0--------------------|
          P  M      P  M PM

SDB = SMALL DIVE BOMB
 
feedback til end





Comments


Popular God Forbid tabs & chords
A Reflection Of The Past Tabs
Century Fades Tabs
Constitution Of Treason Intro Tabs
Crucify Your Beliefs Intro 3 Tabs
Empire Of The Gun Intro Tabs
End Of The World Tabs
End Of The World 3 Tabs
End Of The World Intro 2 Tabs
Fallen Hero Tabs
Precious Lie Intro 1 Tabs


Song lyrics



↑ Back to top | Tablatures and chords are parodies/interpretations of the original songs. You may use it for private study, scholarship, research or language learning purposes only
© 2014 AZChords.com Contact us | Privacy policy | DMCA | Add/correct tabs | Request tabs | Top 50 tabs