» » »

G Love And Special Sauce, This Ain't Living Chords (ver.1)

Artists:  A B C D E F G H I J K L M N O P Q R S T U V W X Y Z # 

This Ain't Living Chords (ver.1)

G Love And Special Sauce Tabs
Rating:
0/5 (0 votes)
Hard to play? Try these video lessons and learn fast.
                So I've seen a few tabs on the net for this song and they're either completely wrong or 
dodgy and only playing like, 2 or 3 notes at a time. So I watched a few of G's videos on 
and figured it out myself.

Basically the whole song is: CMaj7   G   BbMaj7   F   (If these chords look too hard for 
there are some variations at the bottom)

  Cmaj7    G    Bbmaj7   F

e|------------|------------|
B|--8--8------|--6--6------|
G|--9--9---7--|--7--7---5--|
D|--9--9---9--|--7--7---7--|
A|--10-10--10-|--8--8---8--|
E|--8--8---10-|--6--6---8--|

Of course there are variations in the song like before Jasper starts singing. I'm not 
sure on any of the ones where he changes chords, but I know in one part of the song, he 
out the G and the F. So he just plays this.

   Cmaj7         Bbmaj7

e|-------------|-------------|
B|--8--8-------|--6--6-------|
G|--9--9-------|--7--7-------|
D|--9--9-------|--7--7-------|
A|--10-10------|--8--8-------|
E|--8--8-------|--6--6-------|

Hope that helps! Now you need to listen to the actual song to get the rhythm right and 
but these chords should get you pretty well sorted.

Chord variations:

  Cmaj7    G    Bbmaj7   F

e|--3--3--3----|--1--1--1----|
B|--5--5--3----|--3--3--1----|
G|--4--4--4----|--2--2--2----|
D|--5--5--5----|--3--3--3----|
A|--3--3--5----|--1--1--3----|
E|--------3----|--------1----|

  Cmaj7    G    Bbmaj7   F

e|--0--0--3----|--1--1--1----|
B|--0--0--3----|--3--3--1----|
G|--0--0--0----|--2--2--2----|
D|--2--2--0----|--3--3--3----|
A|--3--3--2----|--1--1-------|
E|--3--3--3----|-------------|

Just try and mix and match the chords together to get what's easiest for you, but to get 
exact sound as G. Love, try and eventually learn the first chords I gave you, as that's 
            

comments powered by Disqus
↑ Back to top | G Love And Special Sauce Chords for This Ain't Living. Lyrics for acoustic guitar and electric guitar. Tablatures and chords are parodies/interpretations of the original songs. You may use it for private study, scholarship, research or language learning purposes only