» » »

Stepping Stones Tabs (ver.1)

Artists:  A B C D E F G H I J K L M N O P Q R S T U V W X Y Z # 

Stepping Stones Tabs (ver.1)

G Love And Special Sauce
Rating:
0/5 (0 votes)

Hard to play? Try these video lessons and learn fast.
                E(2)	      F#       B	
e	---------4----------2-------2-----
B	---------5----------2-------4-----
G	---------4----------3-------4-----
D	---------6----------4-------4-----
A	---------4----------4-------2-----
E	---------x----------2-------x-----

                 E     E7
E	---------0-----0-----------
B	---------0-----0-----------
G	---------1-----1-----------
D	---------2-----0-----------
A	---------2-----2-----------	
E	---------0-----0-----------

E(2) a.k.a. C#m7

Intro:
E(2) F# B E


Verse:
E(2) F# B E   (a little faster than intro)


Chorus:
E(2) F# B E E7

(play E7 right at the end of  “…just like a stepping stone”)


Deuce is Loose!
            
Hard to play? Try these video lessons and learn fast. | Correct




comments powered by Disqus
↑ Back to top | Tablatures and chords are parodies/interpretations of the original songs. You may use it for private study, scholarship, research or language learning purposes only