» » »

Rodeo Clown Tabs (ver.1)

Artists:  A B C D E F G H I J K L M N O P Q R S T U V W X Y Z # 

Rodeo Clown Tabs (ver.1)

G Love And Special Sauce
Rating:
0/5 (0 votes)

Hard to play? Try these video lessons and learn fast.
                Rodeo Clowns, copyright G Love + Special Sauce, etcetc.

intro/verse

E-----4-----2-----5-----4
B-----5-----2-----5-----4
G-----4-----3-----6-----5
D-----6-----2-----5-----4
A-----4-----4-----7-----6
E-----4-----2-----5-----4

chorus

E-----4-----4-----5-----2
B-----5-----4-----5-----2
G-----4-----5-----6-----3
D-----6-----4-----5-----2
A-----4-----6-----7-----4
E-----4-----4-----5-----2

[solo]


e---------------------------------------------------------
B---------------------------------------------------------
G------------------4-----4--------------------------------
D-------2--4--4/6-----6-----6/4--2-----------2------------
A--2/4------------------------------4--2--4-----4---------
E---------------------------------------------------------


e---------------------------------------------------------
B---------------------------------------------------------
G------------------4-----4--4/6--4------------------------
D-------2--4--4/6-----6-------------6/4--2----------------
A--2/4--------------------------------------4-------------
E---------------------------------------------------------

e---------------------------------------------------------
B---------------------------------------------------------
G------------------4-----4--------------------------------
D-------2--4--4/6-----6-----6/4--2-----------2--2h4--2----
A--2/4------------------------------4--2--4---------------
E---------------------------------------------------------

e---------------------------------------------------------
B---------------------------------------------------------
G------------------4-----4--4/6--4----------------------4b
D-------2--4--4/6-----6-------------6/4--2--------2--4--4b
A--2/4--------------------------------------2--4----------
E---------------------------------------------------------
            
Hard to play? Try these video lessons and learn fast. | Correct




comments powered by Disqus
↑ Back to top | Tablatures and chords are parodies/interpretations of the original songs. You may use it for private study, scholarship, research or language learning purposes only