» » »

G Love And Special Sauce, Rainbow Tabs (ver.2)

Artists:  A B C D E F G H I J K L M N O P Q R S T U V W X Y Z # 

Rainbow Tabs (ver.2)

G Love And Special Sauce Tabs
Rating:
0/5 (0 votes)
Rainbow lessons Tabs too difficult? Try these video lessons and learn fast
                -------------------------------------------------------------------------------

Tuning: Standard (EADGBe)


There is another version of this song, but the strumming and chords were slightly off.
Basically just repeat this through the entire song. Even during the harmonica 
interlude this in the background.

                                                     __
|---1--1-1-1----1--1-1-1----1--1-1-1----1--1-1-1-|     |
|---1--1-1-1----1--1-1-1----1--1-1-1----1--1-1-1-|     |
|---2--2-2-2----2--2-2-2----2--2-2-2----2--2-2-2-|     |
|---3--3-3-3----3--3-3-3----3--3-3-3----3--3-3-3-|     |
|---3--3-3-3----3--3-3-3----3--3-3-3----3--3-3-3-|     |
|-1-----------1-----------1-----------1----------|     |
                                                       |  x 3  (Only once during the intro)
|---0--0-0-0-----3--3-3-1----0-0--0-0--0-0-0-0-0-|     |
|---1--1-1-1-----0--0--------1-1--1-1--1-1-1-1-1-|     |
|---0--0-0-0-----0--0--------0-0--2-0--0-0-0-0-0-|     |
|---2--2-2-2-----0--0--------2-2--3-2--2-2-2-2-2-|     |
|-3--------------2--2-----3-------0-3--3-3-3-3-3-|     |
|--------------3----3----------------------------|   __|

|---3--3-3-3----3--3-3-3----1--1-1-1----1--1-1-1-|
|---3--3-3-3----3--3-3-3----1--1-1-1----1--1-1-1-|
|---4--2-2-2----4--4-4-4----2--2-2-2----2--2-2-2-|
|---5--5-5-5----5--5-5-5----3--3-3-3----3--3-3-3-|
|---5--5-5-5----5--5-5-5----3--3-3-3----3--3-3-3-|
|-3-----------3-----------1-----------1----------|

|---0--0-0-0-----3--3-3-1----0-0--0-0--0-0-0-0-0-|
|---1--1-1-1-----0--0--------1-1--1-1--1-1-1-1-1-|
|---0--0-0-0-----0--0--------0-0--2-0--0-0-0-0-0-|
|---2--2-2-2-----0--0--------2-2--3-2--2-2-2-2-2-|
|-3--------------2--2-----3-------0-3--3-3-3-3-3-|
|--------------3----3----------------------------|
            

comments powered by Disqus
↑ Back to top | G Love And Special Sauce Tabs for Rainbow. Lyrics for acoustic guitar and electric guitar. Tablatures and chords are parodies/interpretations of the original songs. You may use it for private study, scholarship, research or language learning purposes only