» » »

My Babys Got Sauce Bass tabs (ver.1)

Artists:  A B C D E F G H I J K L M N O P Q R S T U V W X Y Z # 

My Babys Got Sauce Bass tabs (ver.1)

G Love And Special Sauce
Rating:
0/5 (0 votes)

Hard to play? Try these video lessons and learn fast.
                Intro (4x)


G|-----------------------------------------------------|
D|-----------------------------------------------------|
A|-------4-4-----------2-2-----------------------------|
E|--0-0------2--2-2-2----------------------------------|


Fill (leading into the first verse)

G|-----------------------------------------------------|
D|-----------------------------------------------------|
A|-----------0--2--4-----------------------------------|
E|--0--2--4--------------------------------------------|


Verse 1 (played various times...see order below)


G|-----------------------------------------------------|
D|-----------------------------------------------------|
A|-------4-4-----------2-2-----------------------------|
E|--0-0------2--2-2-2----------------------------------|


Chorus

    
G|-----------------------------------------------------|
D|-----------------------------------------------------|
A|-------4-4-----------2-2-----------------------------|
E|--0-0------2--2-2-2----------------------------------|


Modulated Verse 2 (after first chorus)


  
G|-----------------------------------------------------|
D|-------3-3------------1-1----------------------------|
A|------------1--1-1-1---------------------------------|
E|--4-4------------------------------------------------|


Solo  (after second chorus)

    
G|-----------------------------------------------------|
D|--6--4--3--1--6--8--9--10--11--9--8--6--3-----3--6---|
A|-------------------------------------------4---------|
E|-----------------------------------------------------|

G|-----6--4--3-----------------------------------------|
D|--4----------6--4--1--------1--4--7--9/8\9/8/---11---|
A|----------------------2--2---------------------------|
E|-----------------------------------------------------|

Last Fill (During the last chorus and at end of song)

G|-----------------------------------------------------|
D|-----------------------------------------------------|
A|-----------------------------------------------------|
E|--0-(0-0)--4--5--6--7--5--4--0-----------------------|

                the order is:

intro
fill
verse 1
chorus
pause for 1 measure
modulated verse 2
no bass for a couple measures
verse 1
chorus
solo
no bass for a couple measures
verse 1 (w/ a little added funk)
pause for 1 measure (DIG...)
chorus
last fill
chorus
last fill


That's it.  I'm pretty sure this is close to 100% accurate.  Just listen 
to the song to get the rhythms right.  The only thing I didn't tab was 
the funkier verse towards the end of the song, but it's just the same 
corrections.
            
Hard to play? Try these video lessons and learn fast. | Correct




comments powered by Disqus
↑ Back to top | Tablatures and chords are parodies/interpretations of the original songs. You may use it for private study, scholarship, research or language learning purposes only