» » »

Milk And Cereal Bass tabs (ver.1)

Artists:  A B C D E F G H I J K L M N O P Q R S T U V W X Y Z # 

Milk And Cereal Bass tabs (ver.1)

G Love And Special Sauce
Rating:
5/5 (1 vote)

Hard to play? Try these video lessons and learn fast.
                
Funky little song, it was really hard to hear the bass though.

r = release bend

Intro:
G----------------------------------------------------------------------|
D-0-------0-------0-------0--------------------------------------------|
A----------------------------------------------------------------------|
E----------------------------------------------------------------------|

Then play the verse a few times the verse:
G(4)-4-----------------------------------------------------------------|
D------------0--24-2--0-4----------------------------------------------|
A-2----4---------------------------------------------------------------|
E----------------------------------------------------------------------|

The verse changes slightly after the “rice crispies” bit:
G(4)-4------------------4----------------------------------------------|
D----------0--0----------------0-0-------------------------------------|
A-2----4--------3--------2--4-----3------------------------------------|
E----------------------------------------------------------------------|


After playing that a few times you repeat the intro, and then get back into the original verse.


The verse ends on a B: (A-2) then there is a pause while the singers sing “coo-coo for 
puffs”. The pause in the music is broken by a crazy little bass riff. I’m not sure how he 
it, but I’ll try to explain how I think he might do it: for all the notes in the
following riff, bend them up slightly more than one fret, then fall off them slowly
The main 
you should try to emphasize is the note one fret above the written fret. Here goes:

G-11-----7-----3-------------------------------------------------------|
D-----8-----4---0------------------------------------------------------|
A----------------------------------------------------------------------|
E----------------------------------------------------------------------|

Then repeat the original verse 3 times, followed by the second verse 4 times ending on a D

That’s it, have fun with your milk and cereal
            
Hard to play? Try these video lessons and learn fast. | Correct




comments powered by Disqus
↑ Back to top | Tablatures and chords are parodies/interpretations of the original songs. You may use it for private study, scholarship, research or language learning purposes only