» » »

Hot Cookin' Tabs (ver.1)

Artists:  A B C D E F G H I J K L M N O P Q R S T U V W X Y Z # 

Hot Cookin' Tabs (ver.1)

G Love And Special Sauce
Rating:
0/5 (0 votes)

Hard to play? Try these video lessons and learn fast.
                First time tabbing so lemme know whatcha think, and I just figured this out today so, Enjoy all!

Hot Cookin
G Love
Lemonade


---0--0--0--0-changes to--0--0--0--0--| youll figure that out it goes back and
---5--3--3--5-------------5--3--3--5--|  forth throughout the song including
---6--4--2--6-------------6--2--4--6--|  2nd change to start "theres some
---7--5--4--7-------------7--4--5--7--|  hot cookin and its goin on tonight"
--------------------------------------|
--------------------------------------|

then a change

All I got to do is keep the fire burnin bright and i think i might
--0-------0--------------0---------0-----------------0--|
--5-------3--------------8--------10-----------------5--|
--6-------4--------------9--------11-----------------6--|
--7-------5-------------10--------12-----------------7--|
--------------------------------------------------------|
--------------------------------------------------------|

little solo he throws in

5-----------------------------0---0--0-----------|
--8--5------------------------3---8--5-----------|
--------7--5--7--5------------4---9--6-----------|
---------------------5--------5---10--7----------|
-------------------------------------------------|
-------------------------------------------------|

then bridge

my momma always said dont play with fire
-----0------------0------------------0-|
-----7-----------10------------------5-|
-----8-----------11------------------6-|
-----9-----------12------------------7-|       X2
---------------------------------------|
---------------------------------------|

But im about to strike a match, and put this paper on fire
-------0--------0------------------0---------------0-|
-------7-------10------------------5---------------2-|
-------8-------11------------------6---------------3-|
-------9-------12------------------7---------------4-|
-----------------------------------------------------|
-----------------------------------------------------|

so you better run and call someone to come
-------0--------------0--------------0-|
-------3-------------10--------------5-|
-------4-------------11--------------6-|
-------5-------------12--------------7-|
---------------------------------------|
---------------------------------------|

im not goin through the solo but it starts on the e string 14th fret and jams on out as 
blues scale, very dope and the song basically goes back to the beginning!

Actually this is my first time tabbing so let me know how I Did.

G Love Thursday night STARLAND BALLROOM!  Can I get a cold Beverage?
            
Hard to play? Try these video lessons and learn fast. | Correct




comments powered by Disqus
↑ Back to top | Tablatures and chords are parodies/interpretations of the original songs. You may use it for private study, scholarship, research or language learning purposes only