» » »

Home Tabs (ver.1)

Artists:  A B C D E F G H I J K L M N O P Q R S T U V W X Y Z # 

Home Tabs (ver.1)

G Love And Special Sauce
Rating:
0/5 (0 votes)
Tabs too difficult? Try these video lessons and learn fast.
                Was listening to the album and picked up my guitar and figured a few songs off the
album. Love G.Love never had an account on here and don't see many tabbed songs so I 
made on
figure them out together and put a tab on here because G.Love is dope.

e-3-----3-----x------1-h3-----------------------|
b-1-----1-----3------1--------------------------|
g-0-----0-----3------2--------------------------|
d-2-----0-----3------3--------------------------|
a-3-----2-----1------x--------------------------|
e-0-----3-----x------x--------------------------|

Chords are C, G with a c note on the B, or just reg G, B flat , and an old school F with
a hammer on dont hammer on if ya dont want to.When ya play the chords hit the bass note
on every chord sounds better, and for strumming ya gotta listen to it because I cant 
type it out.

The walk down when he says is
"I belive its time for me to come home"
Then continue to the C chord and so on

e------------------------------------|
b------------------------------------|
g---------------------0-0------------|
d---2-2-3-2-2--------------3-2-------|
a-----------------2------------------|
e-------------3----------------------|

Let me know if ya'll are jammin to it Peace Love.
            
Tabs too difficult? Try these video lessons and learn fast.


comments powered by Disqus
↑ Back to top | Tablatures and chords are parodies/interpretations of the original songs. You may use it for private study, scholarship, research or language learning purposes only