» » »

G Love And Special Sauce, Heaven Tabs (ver.1)

Artists:  A B C D E F G H I J K L M N O P Q R S T U V W X Y Z # 

Heaven Tabs (ver.1)

G Love And Special Sauce Tabs
 Rating:
4/5 (4 votes)
Heaven lessons Tabs too difficult? Try these video lessons and learn fast
                Probably my favorite off of the new album Fixin' to Die

Riff 1
E|-------------------------------------|
b|-------------------------------------|
g|-------------------------------------|
d|------5--7/9-9/7--5---2--------------|
a|--5/7--------------------------------|
e|-------------------------------------|

Riff 2
E|-------------------------------------|
b|-------------------------------------|
g|--------------7----------------------|
d|------5--7/9----9/7--5---------------|
a|--5/7--------------------------------|
e|-------------------------------------|

Riff 3
E|-------------------------------------|
b|-------------------------------------|
g|--------------7--9--7----------------|
d|------5--7/9-------------------------|
a|--5/7--------------------------------|
e|-------------------------------------|

Riff 4
E|-------------------------------------|
b|-------------------------------------|
g|-------------------------------------|
d|-------------------------------------|
a|------1-3----------------------------|
e|---3---------------------------------|


intro: G, B7, G, C7, G, D7  (D7 is played in the C shape on the 3rd fret)

G       Riff 1                  B7
When did you fall from heaven
G       Riff 2                 C7
 Were you gonna let me know 
G       Riff 3                          D7
That there’s an angel and she just moved in next door

G       Riff 1                  B7
When did you say goodbye to Heaven 
G       Riff 2                 C7
And leave those starry starry skies
G                                   D7
 When did you leave Heaven sweet angel of mine

C7                       B7
Well I'm hoping and I'm praying
Em7           D                      C7   Riff 4  C7
Loving me won't make you fall down from grace 
C7              B7            Em7               D                      C7
Yes, I'm hoping and I'm praying that the good lord won't take you away 
D7
At least not today

G       Riff 1                  B7
When did you run on down from heaven
G     Riff 2             C7
How'd they ever let you go 
G                                     D7
 Why did you leave Heaven for this earthly home

C7           B7         Em7        D       C7   Riff 4  C7
Spread your wings and fly on home to me 
C7           B7         Em7            D                         C7   
Spread your wings cause some things were meant to be 
D7
Most definitely, you and me
            
Submit corrections

comments powered by Disqus
↑ Back to top | G Love And Special Sauce Tabs for Heaven. Lyrics for acoustic guitar and electric guitar. Tablatures and chords are parodies/interpretations of the original songs. You may use it for private study, scholarship, research or language learning purposes only