>
 >
Blues Music 1

Blues Music 1 Guitar Tabs

G Love And Special Sauce - Blues Music 1 chords, tabs, tablatures, lyrics

Guitar lessons | Add/correct | Request | Top 50 tabs Artists:  A B C D E F G H I J K L M N O P Q R S T U V W X Y Z 0-9

Blues Music 1 Guitar Tabs – G Love And Special Sauce

CD, Sheet music, Poster

Do you like Blues Music 1? Share with your friends now
TabsTabs v2
This is how G. Love plays it.

Intro
|-----------------------|---7-------------------|
|-----------------------|---7-------------------|
|-----------------------|---7-------------------| X13
|---------9-------------|---6-------------------|
|------6----------------|---7-------------------|
|---7-------------------|-----------------------|

(After 4th)
Me and my band 
All must agree we like to get groovy 
With the sounds of the old time 
We like to jam cause man 
Sounds from the Bandstand 
Hand for the cause man 
Hang from the old ones 
The tones the gear the props and the ride very much in 
Chilling outside 
Going way back .... 
I'm a child of the eighties 
A collection of the people 
Who started it all 
I reckon 
I kept them 
In my sock like money 
Blues music 


|--x---x--x--x----------|-----------------------|
|--6s7-7--7--7----------|-----------------------|
|--7s8-8--8--8----X2----|-----------------------|
|--5s7-7--6--5----------|-----------------------|
|--x---x--x--x----------|-----------------------|
|--5s7-7--7--6----------|-----------------------|

|-----------------------|---7-------------------|
|-----------------------|---7-------------------|
|-----------------------|---7-------------------| X11
|---------9-------------|---6-------------------|
|------6----------------|---7-------------------|
|---7-------------------|-----------------------|

(After 2nd)
It's all about rocking the van not rock to roll 
Sway to sway 
Shocks work out I play 
What that fly girl Sabine say .... 
About eight miles to the gallon that's some 
Hiway sailing 
Cool cool lounging 
Atlantic City bounding 
1920's to the 1970's a stream 
Pool solid steady 
Getting ready real cool 
The earth amp sock hat hihat dope 
Dobro D'Addario strings for my things 
The bass wail sings 
Let the rhyme bring 
The tense of the time 
The old time 
Blues music 


|--x---x--x--x----------|-----------------------|
|--6s7-7--7--7----------|-----------------------|
|--7s8-8--8--8----X3----|-----------------------|
|--5s7-7--6--5----------|-----------------------|
|--x---x--x--x----------|-----------------------|
|--5s7-7--7--6----------|-----------------------|

then play

|--x---x--x--x---6---6-5-4-----------|
|--6s7-7--6--5---6---6-5-4-----------|
|--7s8-8--7--6---6---6-5-4-----------|
|--5s7-7--6--5---5---5-4-3-----------|
|--x---x--x--x---6---6-5-4-----------|
|--5s7-7--6--5-----------------------|

|-----------------------|-----------------------|
|-----------------------|-----------------------|
|-----------------------|-----------------------|
|---------------------- |-----------------------|
|---------------------- |-----------------------|
|---------------------- |-----------------------|

Blind Lemon Jefferson and juice 
B.M.W's the proof Frosty Albert Collins, Bukkha White 
Booker T, James Brown 

|-----------------------|---7-------------------|
|-----------------------|---7-------------------|
|-----------------------|---7-------------------|
|---------------------- |---6-------------------|
|---------------------- |---7-------------------|
|---------------------- |-----------------------|

|-----------------------|---7-------------------|
|-----------------------|---7-------------------|
|-----------------------|---7-------------------| X13
|---------9-------------|---6-------------------|
|------6----------------|---7-------------------|
|---7-------------------|-----------------------|

Jimmy Smith at the console 
The soul with the girls Aretha 
Chakka Khan the show Solid Gold 
Cisco and Sonny, Lead Belly too 
Peoples that rode with Woody and you Bob Dylan 
A million Sears Silvertone guitars 
Heard the licks no need to take them nowhere 
Blues music 
It's like chewing gum with your headphones on 
Drinking lemonade 
Chilling on the front porch after running ball 
Like you lost a twenty dollar bill 
You got a free ticket from the scratch and win 
Its like the swimsuit issue 
I think I need a tissue
It's like you and your baby got nasty cut off and left alone now making 
Eyes 
On the city bus again grandma cooks blueberry pie 
Little sister got a boyfriend 
It's like smoking the ride 
The final right 
The vinyl rides 
Blues music ....

|-----------------------|-----------------------|
|-----------------------|-----------------------|
|-----------------------|-----------------------|
|-----------9---------- |-----------------------|
|-------6-------------- |-----------------------|
|---7------------------ |-----------------------|





Comments


Popular G Love And Special Sauce tabs & chords
On 9.11.01 Chords
Baby's Got Sauce Tabs
Beautiful Tabs
Grandmother Tabs
Jenny Crash Tabs
Recipe Tabs
Small Fish 1 Tabs
Milk And Sugar Ukulele
Soft And Sweet Ukulele
Sunshine Ukulele


Song lyrics



↑ Back to top | Tablatures and chords are parodies/interpretations of the original songs. You may use it for private study, scholarship, research or language learning purposes only
© 2014 AZChords.com Contact us | Privacy policy | DMCA | Add/correct tabs | Request tabs | Top 50 tabs