» » »

G Love And Special Sauce, Baby's Got Sauce Bass tabs (ver.1)

Artists:  A B C D E F G H I J K L M N O P Q R S T U V W X Y Z # 

Baby's Got Sauce Bass tabs (ver.1)

G Love And Special Sauce Tabs
 Rating:
4/5 (4 votes)
Baby's Got Sauce lessons Tabs too difficult? Try these video lessons and learn fast
                Main Riff
(----------------------(-----)
(------7/9------789----(-----)
(-6/7-------9----------(--7--)
(----------------------(-----)

Fill
(----------------------------)
(----------------------------)
(----------0-2-4-------------)
(---0-2-4--------------------)

Key Change
(----------------------------)
(----------------------------)
(------4/6------456----------)
(-3/4-------6----------------)

Jazz Walk (listen for timing)
(------------------------------------------------------------------)
(--------------8-9-10-11-9-8------------------11-9-8---------------)
(--11-9-8-6-11----------------11-7/8---8-11-9--------11-7/8--------)
(------------------------------------9----------------------11-9---)

(-------------)
(---------9---)
(---6-7-9-----)
(-7-----------)

Fill
(-----------------------)
(-9-7--6-7---789\-------)
(-----------------------)
(-----------------------)
            
Submit corrections

comments powered by Disqus
↑ Back to top | G Love And Special Sauce Bass for Baby's Got Sauce. Lyrics for acoustic guitar and electric guitar. Tablatures and chords are parodies/interpretations of the original songs. You may use it for private study, scholarship, research or language learning purposes only