» » »

Ain't That Right Tabs (ver.1)

Artists:  A B C D E F G H I J K L M N O P Q R S T U V W X Y Z # 

Ain't That Right Tabs (ver.1)

G Love And Special Sauce
Rating:
0/5 (0 votes)

Hard to play? Try these video lessons and learn fast.
                Sounds right, for any comments, questions or
Listen to figure out timing

Intro:
A E G D : always played as this main riff (below)

   A    E       G     D
e|--5X5-7-X77-X-10X--X10X1010-------|
b|--5X5-9-X99-X-12X12X10X1010-------|
g|--6X6-9-X99-X-12X12X11X1111-------|
d|--7X7-9-X99-X-12X--X12X1212-------|    played twice
a|--7X7-7-X77-X-10X--X12X1212-------|
E|--5X5-7-X77-X-10X--X10X1010-------|
Alternate between (above) and (below)
|--[--------------]—-[-------------]|                               |-10|
|--[--------------]10[-------------]| just take the finger creating>|-12|
|--[same as above-]10[same as above]|                        off   >|-12|
|--[--------------]—-[-------------]|                              >|-12|
|--[--------------]—-[-------------]|                               |-10|
|--[--------------]—-[-------------]|                               |-10|
Rhythms not perfectly given through my ‘X’s’ but it strummed with up strokes (treble 
mainly emphasized) some mute strokes are louder than some, depends on what mood you’re 
it in.

    A   E          G
e|--5X5-7XX------10X--X10------------|
b|--5X5-9XX------12X12X10------------|
g|--6X6-9XX------12X12X11------------|
d|--7X7-9XX------12X--X12-----7----7-|    played twice
a|--7X7-7XX6S7H9-10X--X126S7H9--7H9--|
E|--5X5-7XX------10X--X10------------|
Alternate between (above) and (below)
e|--5X7X7[---------]—-[-------------]|
b|--5X7X9[--same---]10[-------------]|
g|--6X7X9[---as----]10[same as above]|
d|--7X-X9[--above--]—-[-------------]|
a|--7X-X7[---------]—-[-------------]|
A|--5X-X7[---------]—-[-------------]|

CHORUS

A E G D sequence same as main riff just strummed with no mutes.
A second guitar does:

1st Chorus
e|--------7----7h10p7----------8b10r7----5-8p7p5--5-5b—-5~—-5~—-5~--|
b|--s5-7--------------10~-------------------------------------------|
g|------------------------------------------------------------------|
d|------------------------------------------------------------------|
a|------------------------------------------------------------------|
E|------------------------------------------------------------------|

2nd chorus
e|-------7~b~-------10-7b-------------------7b8-97b8r7--------------|
b|--s5-7-----------------10-X-7--7-7h10p7---------------------------|
g|------------------------------------------------------------------|
d|------------------------------------------------------------------|
a|------------------------------------------------------------------|
E|------------------------------------------------------------------|

3rd Chorus
e|-------3-3-3~-3-5h7p5-3-----8b9r7-5-7-5---5~-----5-7-5~-5~-5~-----|
b|--s5------------------------------------7-----5h7------7----------|
g|------------------------------------------------------------------|
d|------------------------------------------------------------------|
a|------------------------------------------------------------------|
E|------------------------------------------------------------------|

Main riff               [same format of strumming/chords for all verses]
A                E
Close my eyes
Evening dies
D               D
My friend rise up to the sunrise
A                E
Brand new day
New chance
Some say
D                             G
If I can make a difference
In this world
Then I may
       A
So I must
               E
So I trust
All my lyrics just bust
             G
Into this new day
   D
Like I was busting a nut
     A
Ohh feels so good
               E
Rising up the "mornin-ornin" (morning)
        G                     D
I just got on the radio
It’s a positive moment


It’s something like
Just the perfect moon
Sonic the waves glaze
For days
In the sunlight haze
I feel good to be alive
All the sh*t that beat me down
Been doing this
I still survive
It ain’t at all complicated
I’m glad I found ya
It’s when you open your heart
That love surrounds you

1st Chorus
Mmmmmm yeah baby
Mmmmmm aint that right….

I wont live my life
By any rules or regulation
walk the road less traveled
Stay away from aggravation
As i assure
Like nationwide
A good time to ride the vibe
So we could all get nice

You want some advice
Stay on the hustle
Do it once
And get it right
I don’t just walk
I’ll take a hike
Cause every day’s an expedition
I don’t just run
I’ll take a bike
And put myself into position
Take the car, take a bus, take a train
rock it with precision
I’m decisive like decision
But yo
I’m only human
And I have my doubts
I wanna know where I fit it
And what this world is all about
It seems when I had my song
That learning was love
Love is what I'm teachin
So let me show you some
2nd Chorus
Mmmmmm yeah baby
Mmmmmm aint that right….
Send me sweet kisses darling
I’m a catch them before they fall
Ain’t nobody’s business
What we do
Ain’t nobody’s business at all
Ooh not at all
They say that love is all you need to heal your wounds
And not be consumed by the everyday evils the man do
It’s just one of those moments that feels too good to be true
When I look in your eyes are you feeling love too?
No fear
No worry
No doubt
No concern
Just the brightest light
And let it burn
I said damn it feels good to hold your hand
Love’s the simplest thing
And now I start to understand
It aint at all complicated
I’m glad I found ya
It’s when you open your heart that love surrounds ya

3rd Chorus
Mmmmmm yeah baby
Mmmmmm aint that right….

Send me sweet kisses darling
I’m a catch them before they fall
Ain’t nobody’s business
What we do
Ain’t nobody’s business at all
Ooh not at all
Not just a tiny bit
Mmmmm
Mmmmm….
            
Hard to play? Try these video lessons and learn fast. | Correct




comments powered by Disqus
↑ Back to top | Tablatures and chords are parodies/interpretations of the original songs. You may use it for private study, scholarship, research or language learning purposes only