» » »

By His Wounds Tabs (ver.1)

Artists:  A B C D E F G H I J K L M N O P Q R S T U V W X Y Z # 

By His Wounds Tabs (ver.1)

Glory Revealed
Rating:
0/5 (0 votes)

Hard to play? Try these video lessons and learn fast.
                By His Wounds By Glory Revealed

Guitar 1

Intro: Gsus4

     Verse:
Gsus4
     He was pearced for uor transgressions

He was crushed for our sins
    Em7
The punishment that brought us peace

Was apon Him
    C
And by His Wounds
D                    Gsus4
By His Wounds we are healed ---Intro (Rep)


Chorus:
       C2              D
We are healed by Your sacrafice
        Em7           C
And the Life that you gave
       C2              D
We are healed for you paide the price
        Em7           C
By Your grace we are saved
              Gsus4
We are saved


Guitar 2

Intro

E--|--8-8h10-12--rep---|
B--|-------------------|
G--|-------------------|
D--|-------------------|
A--|-------------------|
E--|-------------------|


Verse:
         Strum hammer on chords

E--|--------------------|
B--|--------------------|
G--|--0h2-4-2-0h2-4-----|
D--|--------------------|
A--|--------------------|
E--|--------------------|
Verse:
Gsus4
He was pearced for our transgressions
He was crushed for our sins
    Em7
The punishment that brought us peace
Was apon Him
    C
And by His Wounds
D                    Gsus4
By His Wounds we are healed ---Intro (Rep)

Chorus
E--|--------------------------|
B--|--------------------------|
G--|--Strum-chords------------|
D--|---C2-D-Em7-C-------------|
A--|--------------------------|
E--|--------------------------|

Verse: 2
Gsus4
He was pearced for our transgressions
He was crushed for our sins
    (after sins)
E--|--15-17-15-14-12---|
B--|-------------------|
G--|-------------------|
D--|-------------------|
A--|-------------------|
E--|-------------------|
    Em7
The punishment that brought us peace
Was apon Him
   (after Him)
E--|---------------------|
B--|---------------------|
G--|--5-7-8-7-5-3--------|
D--|---------------------|
A--|---------------------|
E--|---------------------|
    C
And by His Wounds
D                    Gsus4
By His Wounds we are healed

Solo:

E--|---------7-------------|
B--|--7-8-10--10-8-7--8-5--|
G--|-----------------------|
D--|-----------------------|
A--|-----------------------|
E--|-----------------------|

E--|-------7-8-10-12-14-15-14-12--10-10/12-|
B--|--7-8-10-------------------------------|
G--|---------------------------------------|
D--|---------------------------------------|
A--|---------------------------------------|
E--|---------------------------------------|


E--|--12-14-15-17-19-17------------------------|
B--|-------------------------------------------|
G--|-------------------------------------------|
D--|-------------------------------------------|
A--|-------------------------------------------|
E--|-------------------------------------------|


E--|--17-19-15-17-14-15-12-14-10-12-10--8/10~--|
B--|-------------------------------------------|
G--|-------------------------------------------|
D--|-------------------------------------------|
A--|-------------------------------------------|
E--|-------------------------------------------|
            
Hard to play? Try these video lessons and learn fast. | Correct




comments powered by Disqus
↑ Back to top | Tablatures and chords are parodies/interpretations of the original songs. You may use it for private study, scholarship, research or language learning purposes only