» » »

Lover's Moon Tabs (ver.1)

Artists:  A B C D E F G H I J K L M N O P Q R S T U V W X Y Z # 

Lover's Moon Tabs (ver.1)

Glenn Frey
Rating:
0/5 (0 votes)

Hard to play? Try these video lessons and learn fast.
                 Title: Lover's Moon
 Track #: 5
 

 Mga p're, rate nyo nlng 'to plz. Try nyo pa iba kong tabs ha!!!


 Standard Tuning: EADGBe

 [Intro]
         There are two guitars playing in this song, 
              one does the rhythm and the other one do the riff below:

      G      Em      C      D       G       Em        C     D

 e|---7---8--7----8--7---5--3--2---------------------------------------------|
 B|—--------------------------------8---10--8----10---8--7--5--3-------------|
 G|---7---7--7----7--7---5--3--2---------------------------------------------|
 D|---------------------------------9---9---9----9----9--8--6--4-------------| 
 A|--------------------------------------------------------------------------|
 E|--------------------------------------------------------------------------|


 [Verse]
 G          Em       C      D
  There's a lover's moon tonight
 
 G     Em         C        D
  As I look back over my shoulder

 G        Em          C      D
  All the stars are shining bright

 G               Em           C        D 
  Just like the nights when I used to hold her

 C                         D
  She's out there somewhere under the lover's moon

  ***tapos repeat ung intro once;***


 [Verse 2]
  ***do chord patterns; G-Em-C-D

  Lover's moon won't you shine on me

  I'm dancing with a memory

  Wish I may, I wish I might

  Have one last chance to hold her tight


 [Chorus]
  ***do chord patterns; G-Em-C-D

 And she's waiting, I know she's waiting

 I know she waits for me

 Under the lover's moon

 ***repeat ulit ung intro once lng;***


 [Verse 3]
  ***do chord patterns; G-Em-C-D

 There's a lover's moon tonight

 Shining down on half of this world 

 So many souls are in its light

 But for me there is just one girl


 [Outro]
   ***do chord patterns; G-Em-C-D

      
 e|---7---8--7----8--7---5--3--2---------------------------------------------|
 B|—--------------------------------8---10--8----10---8--7--5--3-------------|
 G|---7---7--7----7--7---5--3--2---------------------------------------------|
 D|---------------------------------9---9---9----9----9--8--6--4-------------| 
 A|--------------------------------------------------------------------------|
 E|--------------------------------------------------------------------------|

 e|---------------------------------3--/5--5/7---7---8--7----8--7---5--3--2--------------------------------|
 B|—-------------------------------------------------------------------------8--10--8----10---8--7--5--3---|
 G|---5/7--9--7---9--7--5--3--0--2--3--/5--5/7---7---7--7----7--7---5--3--2--------------------------------|
 D|--------------------------------------------------------------------------9--9---9----9----9--8--6--4---| 
 A|--------------------------------------------------------------------------------------------------------|
 E|--------------------------------------------------------------------------------------------------------|

   ***repeat until fade*** tapos na po!!!
            
Hard to play? Try these video lessons and learn fast. | Correct




comments powered by Disqus
↑ Back to top | Tablatures and chords are parodies/interpretations of the original songs. You may use it for private study, scholarship, research or language learning purposes only