» » »

Forget You Tabs (ver.1)

Artists:  A B C D E F G H I J K L M N O P Q R S T U V W X Y Z # 

Forget You Tabs (ver.1)

Glee Cast
Rating:
3/5 (3 votes)

Tabs too difficult? Try these video lessons and learn fast.
                ----------------------------------------------------------------------------
			   Cee Lo Green – Forget You
----------------------------------------------------------------------------

Tuning: Standard
Capo 5


Chorus/Verse
	  A		B7	     D		    A   
e|--------0------------2------------2-------------0------------------------|
B|--------2------------0------------3-------------2------------------------|
G|--------2------------2------------2-------------2------------------------|
D|--------2------------1------------0-------------2------------------------|
A|--------0---------0--2------0--2----------------0------------------------|
E|--0--2---------2--------------------------0--2---------------------------|

[Chorus]
I see you driving ’round town with the girl i love and i’m like, Forget you!
(Oo, oo, ooo)
I guess the change in my pocket wasn’t enough i’m like, Forget you! And forget her too!
I said, if i was richer, i’d still be with ya. Ha, now ain’t that some sh*t? 
(ain’t that some sh*t?)
And although there’s pain in my chest, I still wish you the best with a… Forget you!
(Oo, oo, ooo)


Yeah i’m sorry, i can’t afford a ferrari,
But that don’t mean i can’t get you there.
I guess he’s an xbox and i’m more atari,
But the way you play your game ain’t fair.


I pity the fool that falls in love with you
(oh sh*t she’s a gold digger)
Well
(just thought you should know nigga)
Ooooooh
I’ve got some news for you
Yeah go run and tell your little boyfriend


[Chorus]

Now i know, that i had to borrow,
Beg and steal and lie and cheat.
Trying to keep ya, trying to please ya.
‘Cause being in love with you ass ain’t cheap.

I pity the fool that falls in love with you
(oh sh*t she’s a gold digger)
Well
(just thought you should know nigga)
Ooooooh
I’ve got some news for you
I'm gonna hate yo ass right now


[Chorus]

[Bridge]
	C#m		F#m		Bm		E
e|-----4-----------2-----------2----------0-------------------------------------|
B|-----5-----------2-----------3----------0-------------------------------------|
G|-----6-----------2-----------4----------1-------------------------------------|
D|-----6-----------4-----------4----------2-------------------------------------|
A|-----4-----------4-----------2----------2-------------------------------------|
E|-----------------2----------------------0-------------------------------------|
Now baby, baby, baby, why d’you wanna wanna hurt me so bad?
(so bad, so bad, so bad)
I tried to tell my mamma but she told me
“this is one for your dad”
(your dad, your dad, your dad)
Uh! Whhhy? Uh! Whhhy? Uh!
Whhhy lady? Oh! I love you oh!
I still love you. Oooh!


[Chorus]
            
Tabs too difficult? Try these video lessons and learn fast.




comments powered by Disqus
↑ Back to top | Tablatures and chords are parodies/interpretations of the original songs. You may use it for private study, scholarship, research or language learning purposes only