» » »

Continue On Tabs (ver.1)

Artists:  A B C D E F G H I J K L M N O P Q R S T U V W X Y Z # 

Continue On Tabs (ver.1)

Glasseater
Rating:
0/5 (0 votes)

Hard to play? Try these video lessons and learn fast.
                Tuning: standard

please rate this, i'm pretty sure it's right.


e|------------------------------------------------------------------
b|------------------------------------------------------------------
g|-----------555-22-77------------555-2-77--------------------------
d|-222-2-2-2-555-22-77--222-2-2-2-555-2-77--------------------------
a|-222-2-2-2-333-00-55--222-2-2-2-333-0-55--------------------------
e|-000-0-0-0------------000-0-0-0-----------------------------------

e|------------------------------------------------------------------
b|------------------------------------------------------------------
g|-----------555-22-77------------555-2-77--------------------------
d|-222-2-2-2-555-22-77--222-2-2-2-555-2-77--------------------------
a|-222-2-2-2-333-00-55--222-2-2-2-333-0-55--------------------------
e|-000-0-0-0------------000-0-0-0-----------------------------------

e|------------------------------------------------------------------
b|------------------------------------------------------------------
g|--------------55-22-7--------------55-22-7------------------------
d|-222222222222-55-22-7--22222222222-55-22-7------------------------
a|-222222222222-33-00-5--22222222222-33-00-5------------------------
e|-000000000000----------00000000000--------------------------------
pm ............          ...........

next there are two significant parts, lead and rhythm

lead:
e|------------------------------------------------------------------
b|------------------------------------------------------------------
g|-12-11-9-12-11-9-12-9-11--12-11-9-12-11-9-12-14-11----------------
d|------------------------------------------------------------------
a|------------------------------------------------------------------
e|------------------------------------------------------------------

e|------------------------------------------------------------------
b|------------------------------------------------------------------
g|-12-11-9-12-11-9-12-9-11--12-11-9-12-11-9-12-14-11----------------
d|------------------------------------------------------------------
a|------------------------------------------------------------------
e|------------------------------------------------------------------

rhythm:
e|------------------------------------------------------------------
b|------------------------------------------------------------------
g|------------------555-222-44444444--------------------------------
d|-2222222222222222-555-222-44444444--------------------------------
a|-2222222222222222-333-000-22222222--------------------------------
e|-0000000000000000-------------------------------------------------

e|------------------------------------------------------------------
b|------------------------------------------------------------------
g|------------------555-777-44444444--------------------------------
d|-2222222222222222-555-777-44444444--------------------------------
a|-2222222222222222-333-555-22222222--------------------------------
e|-0000000000000000-------------------------------------------------

e|------------------------------------------------------------------
b|------------------------------------------------------------------
g|------------------555-222-44444444--------------------------------
d|-2222222222222222-555-222-44444444--------------------------------
a|-2222222222222222-333-000-22222222--------------------------------
e|-0000000000000000-------------------------------------------------

e|------------------------------------------------------------------
b|------------------------------------------------------------------
g|------------------555-777-4444444---------------------------------
d|-2222222222222222-555-777-4444444---------------------------------
a|-2222222222222222-333-555-2222222---------------------------------
e|-0000000000000000-------------------------------------------------
pm                          ....
both of those parts play simultaneously, then this part comes up again when the 

last two are done

e|------------------------------------------------------------------
b|------------------------------------------------------------------
g|-----------555-22-77------------555-2-77--------------------------
d|-222-2-2-2-555-22-77--222-2-2-2-555-2-77--------------------------
a|-222-2-2-2-333-00-55--222-2-2-2-333-0-55--------------------------
e|-000-0-0-0------------000-0-0-0-----------------------------------

e|------------------------------------------------------------------
b|------------------------------------------------------------------
g|-----------555-22-77------------555-2-77--------------------------
d|-222-2-2-2-555-22-77--222-2-2-2-555-2-77--------------------------
a|-222-2-2-2-333-00-55--222-2-2-2-333-0-55--------------------------
e|-000-0-0-0------------000-0-0-0-----------------------------------

now it splits between the lead and rhythm again

lead:
e|------------------------------------------------------------------
b|------------------------------------------------------------------
g|-12-11-9-12-11-9-12-9-11--12-11-9-12-11-9-12-14-11----------------
d|------------------------------------------------------------------
a|------------------------------------------------------------------
e|------------------------------------------------------------------

e|------------------------------------------------------------------
b|------------------------------------------------------------------
g|-12-11-9-12-11-9-12-9-11--12-11-9-12-11-9-12-14-11----------------
d|------------------------------------------------------------------
a|------------------------------------------------------------------
e|------------------------------------------------------------------

e|------------------------------------------------------------------
b|------------------------------------------------------------------
g|-12-11-11-12-11-11-12-9-11--12-11-11-12-11-11-12-14-11------------
d|------------------------------------------------------------------
a|------------------------------------------------------------------
e|------------------------------------------------------------------

e|------------------------------------------------------------------
b|------------------------------------------------------------------
g|-12-11-11-12-11-11-12-9-11--12-11-11-12-11-11-12-14-11-12-14-16/0-
d|------------------------------------------------------------------
a|------------------------------------------------------------------
e|------------------------------------------------------------------

rhythm:
e|------------------------------------------------------------------
b|------------------------------------------------------------------
g|------------------555-222-44444444--------------------------------
d|-2222222222222222-555-222-44444444--------------------------------
a|-2222222222222222-333-000-22222222--------------------------------
e|-0000000000000000-------------------------------------------------

e|------------------------------------------------------------------
b|------------------------------------------------------------------
g|------------------555-777-44444444--------------------------------
d|-2222222222222222-555-777-44444444--------------------------------
a|-2222222222222222-333-555-22222222--------------------------------
e|-0000000000000000-------------------------------------------------

e|------------------------------------------------------------------
b|------------------------------------------------------------------
g|------------------555-222-44444444--------------------------------
d|-2222222222222222-555-222-44444444--------------------------------
a|-2222222222222222-333-000-22222222--------------------------------
e|-0000000000000000-------------------------------------------------

e|------------------------------------------------------------------
b|------------------------------------------------------------------
g|------------------555-777-4444444---------------------------------
d|-2222222222222222-555-777-4444444---------------------------------
a|-2222222222222222-333-555-2222222---------------------------------
e|-0000000000000000-------------------------------------------------
pm                          ....

e|---2------------2---------------------------------------------------
b|---3------------3---------------------------------------------------
g|---0--5-2-4-----0-5-7-4----5-2-4---5-7-444444-5-7-4--754------------
d|-2----5-2-4---2---5-7-4--2-5-2-4-2-5-7-444444-5-7-4--7542-----------
a|-2----3-0-2---2---3-5-2--2-3-0-2-2-3-5-222222-3-5-2--5322-----------
e|-0------------0----------0-------0----------------------0-----------
pm                                                     ....

that's about it, listen to the song for timing, IM me on AIM at Neon Carrot4 and tell 

me what you think.
            
Hard to play? Try these video lessons and learn fast. | Correct




comments powered by Disqus
↑ Back to top | Tablatures and chords are parodies/interpretations of the original songs. You may use it for private study, scholarship, research or language learning purposes only