» » »

Glasseater, Art Of Communication Tabs (ver.1)

Artists:  A B C D E F G H I J K L M N O P Q R S T U V W X Y Z # 

Art Of Communication Tabs (ver.1)

Glasseater Tabs
 Rating:
4/5 (5 votes)
Art Of Communication lessons Tabs too difficult? Try these video lessons and learn fast
1
                                            play twice
E-------------------------|--------------------------------------|
B-------------------------|--------------------------------------|
G-------------------------|-----7-8-8-8-----7-8-8-8-----8-6-6-6--|
D-------------------------|-5-5-7-8-8-8-5-5-7-8-8-8-8-8-8-6-6-6--|
A-----5-6-----6-5-3-3-5-6-|-5-5-5-6-6-6-5-5-5-6-6-6-8-8-6-5-5-5--|
E-3-3-----6-6-------------|-3-3---------3-3---------6-6----------|
                                                    play twice
E--------------------------------------------------|-------------|
B--------------------------------------------------|-------------|
G-----8-7-7-7-5-5-7-8-8-8-5-5-7-8-8-8-101010107-7-8|-------------|
D-8-8-8-7-7-7-5-5-7-8-8-8-5-5-7-8-8-8-101010107-7-8|-5-5-5-5-5-5-|
A-8-8-6-5-5-5-3-3-5-6-6-6-3-3-5-6-6-6-8-8-8-8-5-5-6|-5-5-5-5-5-5-|
E-6-6----------------------------------------------|-3-3-3-3-3-3-|
                                                  play twice
E------------------------------------------------|---------------|
B------------------------------------------------|---------------|
G---------------5-5-5-5-5-5-5-7-8-8-8-8----------|-----10-5-9-5--|
D-8-8-8-3-3-3-3-5-5-5-5-5-5-5-7-8-8-8-8-3-3-3-3-3|-5-8-10-5-9-5--|
A-8-8-8-3-3-3-3-3-3-3-3-3-3-3-5-6-6-6-6-3-3-3-3-3|-5-8-8--3-7-3--|
E-6-6-6-1-1-1-1-------------------------1-1-1-1-1|-3-6-----------|
      play twice
E---|------------------------------------------------------------|
B---|------------------------------------------------------------|
G---|-----7-8-8-8-----7-8-8-8-----8-7-7-7-----8-7-7-7-5-5-7-8-8--|
D-10|-5-5-7-8-8-8-5-5-7-8-8-8-8-8-8-7-7-7-8-8-8-7-7-7-5-5-7-8-8--|
A-10|-5-5-5-6-6-6-5-5-5-6-6-6-8-8-6-5-5-5-8-8-6-5-5-5-3-3-5-6-6--|
E-8-|-3-3---------3-3---------6-6---------6-6--------------------|

E--------------------------------|-------------------------------|
B--------------------------------|-------------------------------|
G-8-5-5-7-8-8-8------------------|-------------------------------|
D-8-5-5-7-8-8-8-10-10-10-10-7-7-8|-5----p-5-5-5-5-5-5-8-8-8-3-3--|
A-6-3-3-5-6-6-6-10-10-10-10-7-7-8|-5----p-5-5-5-5-5-5-8-8-8-3-3--|
E---------------8--8--8--8--5-5-6|-3----p-3-3-3-3-3-3-6-6-6-1-1--|
                               hold^     play twice      play twice
E--------------------------------------|----------------|--------|
B--------------------------------------|----------------|--------|
G-----5-5-5-5-5-5-5-7-8-8-8-8----------|-----10-5-9-5-10|-----7--|
D-3-3-5-5-5-5-5-5-5-7-8-8-8-8-3-3-3-3-3|-5-8-10-5-9-5-10|-5-5-7--|
A-3-3-3-3-3-3-3-3-3-5-6-6-6-6-3-3-3-3-3|-5-8-8--3-7-3-8-|-5-5-5--|
E-1-1-------------------------1-1-1-1-1|-3-6------------|-3-3----|

E----------------------------------------------------------------|
B----------------------------------------------------------------|
G-8-8-8-----7-8-8-8-----8-7-7-7-----8-7-7-7-5-5-7-8-8-8-5-5-7-8--|
D-8-8-8-5-5-7-8-8-8-8-8-8-7-7-7-8-8-8-7-7-7-5-5-7-8-8-8-5-5-7-8--|
A-6-6-6-5-5-5-6-6-6-8-8-6-5-5-5-8-8-6-5-5-5-3-3-5-6-6-6-3-3-5-6--|
E-------3-3---------6-6---------6-6------------------------------|
                         play 10
E---------------------|-|--------|--------------------------------|
B---------------------|-|--------|--------------------------------|
G-8-8------------7-7-8|-|--------|--------------------------------|
D-8-8-10-10-10-107-7-8|5|-5-5-5-5|-8-8-8-8-8-8-8-8-10-10-10-10-10-|
A-6-6-8--8--8--8-5-5-6|5|-5-5-5-5|-8-8-8-8-8-8-8-8-10-10-10-10-10-|
E---------------------|3|-3-3-3-3|-6-6-6-6-6-6-6-6-8--8--8--8--8--|
                   hold^
E-------------------------------------------|---------------------|
B-------------------------------------------|---------------------|
G-------------------------------------------|-----7-8-8-8-----7-8-|
D-10-10-10-10--8-8-8-8-8-8-8-7-7-7-7-7-7-7-7|-5-5-7-8-8-8-5-5-7-8-|
A-10-10-10-10--8-8-8-8-8-8-8-7-7-7-7-7-7-7-7|-5-5-5-6-6-6-5-5-5-6-|
E-8--8--8--8---6-6-6-6-6-6-6-5-5-5-5-5-5-5-5|-3-3---------3-3-----|

E-----------------------------------------------------------------|
B-----------------------------------------------------------------|
G-8-8-----8-7-7-7-----8-7-7-7-5-5-7-8-8-8-5-7-8-8-8-10-10-10-10-6-|
D-8-8-8-8-8-7-7-7-8-8-8-7-7-7-5-5-7-8-8-8-5-7-8-8-8-10-10-10-10-6-|
A-6-6-8-8-6-5-5-5-8-8-6-5-5-5-3-3-5-6-6-6-3-5-6-6-6-8--8--8--8--5-|
E-----6-6---------6-6---------------------------------------------|

E--------|-------------------------------------------------------|
B--------|-------------------------------------------------------|
G-7-7-8-7|-------------------------------------------------------|
D-7-7-8-7|-------------------------------------------------------|
A-5-5-6-5|-------------------------------------------------------|
E--------|-------------------------------------------------------|
            
Submit corrections

comments powered by Disqus
↑ Back to top | Glasseater Tabs for Art Of Communication. Lyrics for acoustic guitar and electric guitar. 1 Tablatures and chords are parodies/interpretations of the original songs. You may use it for private study, scholarship, research or language learning purposes only