» » »

Valse Etude Tabs (ver.2)

Artists:  A B C D E F G H I J K L M N O P Q R S T U V W X Y Z # 

Valse Etude Tabs (ver.2)

Giuliani Mauro
Rating:
0/5 (0 votes)

Hard to play? Try these video lessons and learn fast.
                
Notes:  Simple Classical Piece by MAURO GIULIANI
Tuning:EADGBE

||----3-|--3-----2-----1-----|--0-----------------|--1-----------------|------
||------|--|-----|-----|-----|--|-----1-----1-----|--|-----3-----3-----|------
||-*----|--|--0--|--0--|--0--|--|--0--|--0--|--0--|--|--0--|--0--|--0--|------
||-*----|--|-----|-----|-----|--|-----2-----2-----|--|-----0-----3-----|------
||------|--|-----0-----2-----|--3-----------------|--2-----------------|------
||------|--3-----------------|--------------------|--------------------|------


--0-----------3-----|--3-----2-----1-----|--0-----------------|--------------
--|-----1-----------|--|-----|-----|-----|--|-----1-----1-----|--------------
--|--0--|--0-----0--|--|--0--|--0--|--0--|--|--0--|--0--|--0--|--------------
--|-----2-----------|--|-----|-----|-----|--|-----2-----2-----|--------------
--3-----------------|--|-----0-----2-----|--3-----------------|--------------
--------------------|--3-----------------|--------------------|--------------


--1-----------------|------------||---||----0-----|-----0-----0-------|------
--|-----3-----0-----|--1---------||---||-------3--|--1-----4-----1----|------
--|--0--|--0--|--0--|--|-------*-||---||-*--------|--|--------------2-|------
--|-----0-----3-----|--2-------*-||---||-*--------|--|----------------|------
--2-----------------|-----3------||---||----------|--0----------------|------
--------------------|------------||---||----------|-------------------|------


-----------------|--------------------|--0-----0--1--|--3-----1-----0-----|--
-----0-----------|-----------0--1--3--|--|-----------|--|-----|-----|-----|--
--1-----------1--|--2--1--2-----------|--|-----------|--|--0--|--0--|--0--|--
--|-----2--4-----|--3-----------------|--2-----------|--2-----0-----|-----|--
--|--------------|--------------------|--------------|--------------3-----|--
--0--------------|--------------------|-----0--------|--------------------|--



--3-----1-----0-----|--------------------|-----------||-----------------------
--|-----|-----|-----|--3-----1-----0-----|--1--------||-----------------------
--|--0--|--0--|--0--|--|--0--|--0--|--0--|--|------*-||-----------------------
--2-----0-----|-----|--3-----2-----3-----|--2------*-||-----------------------
--------------3-----|--------------------|-----3-----||-----------------------
--------------------|--------------------|-----------||-----------------------
            
Hard to play? Try these video lessons and learn fast. | Correct




comments powered by Disqus
↑ Back to top | Tablatures and chords are parodies/interpretations of the original songs. You may use it for private study, scholarship, research or language learning purposes only