>
 >
Study In E Minor

Study In E Minor Guitar Tabs

Giuliani Mauro - Study In E Minor chords, tabs, tablatures, lyrics

Guitar lessons | Add/correct | Request | Top 50 tabs Artists:  A B C D E F G H I J K L M N O P Q R S T U V W X Y Z 0-9

Study In E Minor Guitar Tabs – Giuliani Mauro

CD, Sheet music, Poster

Do you like Study In E Minor? Share with your friends now
Tabs
PROPS GO TO: Guitar Prof

Study In E Minor by Mauro Giuliani




     i m a m i
e--------0-----------0-----------0-----------0------+
B------0---0-------0---0-------0---0-------0---0----+
G----0-------0---0-------0---0-------0---0-------0--+
D--------------2-----------2-----------2------------+
A---------------------------------------------------+
E--0------------------------------------------------+
   p 

e--------0-----------0-----------0-----------0------+
B------4---4-------4---4-------4---4-------4---4----+
G----2-------2---2-------2---2-------2---2-------2--+
D--------------4-----------4-----------4------------+
A---------------------------------------------------+
E--0------------------------------------------------+


e--------0-----------0-----------0-----------0------+
B------5---5-------5---5-------5---5-------5---5----+
G----4-------4---4-------4---4-------4---4-------4--+
D--------------5-----------5-----------5------------+
A---------------------------------------------------+
E--0------------------------------------------------+


e--------0-----------0-----------0-----------0------+
B------7---7-------7---7-------9---9-------9---9----+
G----5-------5---5-------5---7-------7---7-------7--+
D--------------7-----------------------9------------+
A---------------------------------------------------+
E--0-----------------------0------------------------+


e--------0-----------0-----------0-----------0------+
B------10--10------10--10------10--10------10--10---+
G----9-------9---9-------9---9-------9---9-------9--+
D--------------10----------10----------10-----------+
A---------------------------------------------------+
E--0------------------------------------------------+


e--------0-----------0-----------0-----------0------+
B------8---8-------8---8-------8---8-------8---8----+
G----9-------9---9-------9---9-------9---9-------9--+
D--------------9-----------9-----------9------------+
A---------------------------------------------------+
E--0------------------------------------------------+



e--------0-----------0-----------0-----------9------+
B------7---7-------8---8-------7---7-------7---7----+
G----6-------6---6-------6---6-------6---6-------6--+
D--8-----------8-----------8-----------8------------+
A---------------------------------------------------+
E---------------------------------------------------+


e--------0-----------0-----------0-----------9------+
B------7---7-------8---8-------7---7-------7---7----+
G----6-------6---6-------6---6-------6---6-------6--+
D--8-----------8-----------8-----------8------------+
A---------------------------------------------------+
E---------------------------------------------------+


e---------------------------------------------------+
B--------0-----------0-----------0-----------0------+
G------8---8-------8---8-------8---8-------8---8----+
D----7-------7---10------10--9-------9---7-------7--+
A--9-----------9-----------9-----------9------------+
E---------------------------------------------------+


e---------------------------------------------------+
B--------0-----------0-----------0-----------0------+
G------8---8-------8---8-------8---8-------8---8----+
D----7-------7---10------10--9-------9---7-------7--+
A--9-----------9-----------9-----------9------------+
E---------------------------------------------------+


e--------0-----------3-----------2-----------0------+
B------0---0-------0---0-------0---0-------0---0----+
G----0-------0---0-------0---0-------0---0-------0--+
D---------------------------------------------------+
A---------------------------------------------------+
E--0-----------0-----------0-----------0------------+


e--------3-----------2-----------2-----------2------+
B------1---1-------1---1-------1---1-------1---1----+
G----2-------2---2-------2---2-------2---2-------2--+
D---------------------------------------------------+
A--0-----------0-----------0-----------0------------+
E---------------------------------------------------+


e--------2-----------0-----------0-----------0------+
B------0---0-------0---0-------0---0-------0---0----+
G----0-------0---0-------0---0-------0---0-------0--+
D---------------------------------------------------+
A--2-----------2-----------2-----------2------------+
E---------------------------------------------------+


  BII - - - - - - - - - - - - - - - - - - - - - - - 
e---------------------------------------------------+
B--------5-----------4-----------4-----------4------+
G------2---2-------2---2-------2---2-------2---2----+
D----4-------4---4-------4---4-------4---4-------4--+
A--2-----------2-----------2-----------2------------+
E---------------------------------------------------+


e--------0-----------12----------15----------12-----+
B------0---0-------0---0-------0---0-------0---0----+
G----0-------0---0-------0---0-------0---0-------0--+
D---------------------------------------------------+
A---------------------------------------------------+
E--0-----------0-----------0-----------0------------+


e--------7-----------12----------3-----------7------+
B------0---0-------0---0-------0---0-------0---0----+
G----0-------0---0-------0---0-------0---0-------0--+
D---------------------------------------------------+
A---------------------------------------------------+
E--0-----------0-----------0-----------0------------+


e--------0-----------0-----------0-----------0------+
B------0---0-------0---0-------0---0-------0---0----+
G----0-------0---0-------0---0-------0---0-------0--+
D--------------2-----------5-----------2------------+
A---------------------------------------------------+
E--0------------------------------------------------+


e--------0-----------0-----------0-----------0------+
B------0---0-------0---0-------0---0-------0---0----+
G----0-------0---0-------0---0-------0---0-------0--+
D--------------2------------------------------------+
A--2-----------------------------------2------------+
E--------------------------3------------------------+


e---0---++
B---0---++
G---0---++
D---2---++
A---2---++
E---0---++





Comments


Popular Giuliani Mauro tabs & chords
Allegro Tabs
Allegro 1 Tabs
Allegro In A Tabs
Maestoso Tabs
Maestoso 1 Tabs
Study Tabs
Study 6 Tabs
Valse Etude Tabs
Valse Etude 1 Tabs


Song lyrics



↑ Back to top | Tablatures and chords are parodies/interpretations of the original songs. You may use it for private study, scholarship, research or language learning purposes only
© 2014 AZChords.com Contact us | Privacy policy | DMCA | Add/correct tabs | Request tabs | Top 50 tabs