» » »

Giuliani Mauro, Maestoso Tabs (ver.1)

Artists:  A B C D E F G H I J K L M N O P Q R S T U V W X Y Z # 

Maestoso Tabs (ver.1)

Giuliani Mauro Tabs
 Rating:
4/5 (4 votes)
Maestoso lessons Tabs too difficult? Try these video lessons and learn fast
                "Maestoso"  by Mauro Giuliani

	This piece is played in common time with a standard tuning. Any 

	|---------------|---------------|---------------|-------------0-|
	|---------------|---------------|---------------|---------1-----|                               
	|-0-------------|-2-------------|-0-----------2-|-----0---------|
	|-2-------0---2-|-3---2---0-----|---------------|-2-------------|
	|-----3---------|-------------3-|-2-------0---2-|-3-------------|
	|---------------|---------------|-----3---------|---------------|
 
	|-3-------------|---------------|-3-------------|-0-----------0-|
	|-----1---0---1-|-3-------0---3-|-----3---1---3-|---------1-----|
	|---------------|-----0---------|---------------|-----0---------|
	|-----2---0-----|---------------|-----3---2---0-|---------------|
	|-------------3-|-2-------------|---------------|-3-------------|
	|---------------|---------------|---------------|---------------|

	|-3-----------0-|-3---1-------0-|-0-------------|---------------|
	|-----1---3-----|---------------|-----3-------1-|-1---0---------|
	|---------------|---------------|---------------|---------2---0-|
	|---------------|---------------|---------------|---------------|
	|-----3---2---1-|-0-------------|---------------|---------------|
	|---------------|---------3-----|-1-------2-----|-3-------------|

	|---------------|---------1-----|---------3-----|-0-------------|
	|---------1-----|---------------|-3-------------|-----1---0-----|
	|-0-------------|-2-------------|---------------|-------------0-|
	|-2-------0---2-|-3---2---0-----|---------------|---------0-----|
	|-----3---------|-------------3-|-2-------0---2-|-3-------------|
	|---------------|---------------|-----3---------|---------------|

	|---------------|-0-------------|---------------|-----3-------3-|
	|-1-------3-----|-----1-------3-|-1-------0-----|-1-------0-----|
	|-----0-------0-|---------2-----|-----0-------0-|---------------|
	|-2-------------|---------3-----|-2-------0-----|---------3-----|
	|---------2-----|-3-------------|---------------|-3-------------|
	|---------------|---------------|---------------|---------------|

	|-----3-------3-|-0-------------|---------------|---------------|
	|-1-------3-----|-----1-------3-|-1-(1)---0-(0)-|-1-------(1)---|
	|---------------|---------2-----|-0-(0)---0-(0)-|-0-------(0)---|
	|-2-------------|---------------|-2-(2)---0-(0)-|-2-------(2)---|
	|---------2-----|-3-------------|---------------|-3-------(3)---|
	|---------------|-----0---1-----|-3-(3)---3-(3)-|---------------|
            
Submit corrections

comments powered by Disqus
↑ Back to top | Giuliani Mauro Tabs for Maestoso. Lyrics for acoustic guitar and electric guitar. Tablatures and chords are parodies/interpretations of the original songs. You may use it for private study, scholarship, research or language learning purposes only