» » »

God Damned Tabs (ver.1)

Artists:  A B C D E F G H I J K L M N O P Q R S T U V W X Y Z # 

God Damned Tabs (ver.1)

Girls
Rating:
5/5 (3 votes)

Tabs too difficult? Try these video lessons and learn fast.
                Band: Girls


INTRO (Chord shapes; I'm not going to give the exact picking pattern here)

e|-0-----0-----0-----0-----|
B|-0-----0-----0-----0-----|
G|-2-----2-----2-----2-----|
D|-2-----3-----4-----3-----|
A|-------------------------|
E|-------------------------|

Play that twice through, arpeggiated.  You'll also want to take your finger off the D 
occasionally and play it open.  Listen to the song to see what I mean.

MEAT & POTATOES

For the rest of the song, just repeat these chords over and over:

   A     F#m   C#m   G     Bm
e|-5-----2-----4-----3-----2-|
B|-5-----2-----5-----3-----3-|
G|-6-----2-----6-----4-----4-|
D|-7-----4-----6-----5-----4-|
A|-7-----4-----4-----5-----2-|
E|-5-----2-----------3-------|

Listen to the song for the proper strumming pattern.  It's pretty straightforward.

~~~ THAT'S ALL SHE WROTE ~~~
            
Tabs too difficult? Try these video lessons and learn fast.




comments powered by Disqus
↑ Back to top | Tablatures and chords are parodies/interpretations of the original songs. You may use it for private study, scholarship, research or language learning purposes only