>
 >
Darling

Darling Guitar Tabs

Girls - Darling chords, tabs, tablatures, lyrics

Guitar lessons | Add/correct | Request | Top 50 tabs Artists:  A B C D E F G H I J K L M N O P Q R S T U V W X Y Z 0-9

Darling Guitar Tabs – Girls

CD, Sheet music, Poster

Do you like Darling? Share with your friends now
Tabs

                  
                               -GIRLS-
                         
                               Darling
                            

   Check out my tab for Lust for life (contains chords,lead guitar and the  

   correct final arpeggio).




   I think this tab is almost 100% correct.


   Intro:  
          [-0----0-------0---0-0-0--------------0---------]...
          [-0----0-----------0-0-0--------------0---------]...
          [-0/1--1--0p1------1-1-1--------------1--0p1----]...etc
          [-1/2--2-----------2-2-2-----------2------------]...
          [-1/2--2-----------2-2-2---2---2---2------------]...
          [-0----0-----------0-0-0---3---3---0------------]...
                 *                              *starts again from * 
                                                  (play it 4 times)
                                                 




      Verse:

            E             
             I was feeling so sad and alone
                    A
             But I found a friend in the song that I'm singing
            E
             I was feeling like a nothing inside
                    A
             Then I found it all in the song

                                F#m
             And yeah, yeah, yeah
                                           E
             It's coming straight from my heart
                               F#m
             And yeah, yeah, yeah
                              E
             I gotta' let it go
                            F#m        Lead guitar
             Yeah, yeah, yeah          1[--------2--
                                       2[----2------
                                       3[--2---2----



                INTRO X 4



    Solo:(Rythm guitar plays the verse)
     
     [---------------------------------------------------------]
     [--5------------------------------------------------------]
     [----6-4-6-4---4------------------------------------------]
     [------------6---6-4-6-4--------------------------------9-]
     [-------------------------7----------6-7---7---7-9-9/11---]
     [----------------------------9-9-7-9---------9------------]

   
     [--------------------------------------12-12-12-11-11-11-9-9-9-]
     [--------------------------------------------------------------]
     [--------------------------------------------------------------]
     [--------------------------------------------------------------]
     [-11/9--7-6-6-6h7p6-------------6-7----------------------------]
     [-------------------9-7-9-9-7-9--------------------------------]

     
     [------------------------------------------------------------]
     [-12-12-12-10-10-10-9-9-9---------------12-------------------]
     [-------------------------11-9-11-11/13----13/11-9-8-8-8h9p8-]
     [------------------------------------------------------------]
     [------------------------------------------------------------]
     [------------------------------------------------------------]

      
     [------------------------------------------------12---]
     [-------------------------------------12---9/12-------]
     [-----------------8-9-9----9-11-11/13-----------------]
     [-11-9-11-11-9-11-------11----------------------------]
     [-----------------------------------------------------]
     [-----------------------------------------------------]

      
     [--------------------------------------]
     [-------5------------------------------]
     [----------8--6/4--4/6-6-4--2/1/2/1----]
     [--------------------------------------]
     [--------------------------------------]
     [--------------------------------------]


          Rythm guitar plays now the intro x 4. 
  1:53

     [---3-0---0--------------------------------------]
     [-------3---3-0-3-0------------------------------]
     [-------------------2-0-2/4-2-0-2-0---0----------]
     [-----------------------------------2---2-0-2----]
     [------------------------------------------------]
     [------------------------------------------------]


      Verse:
             E
             Man, I felt like I was going nowhere
                      A
             Then I found my way in the song I was singing
             E
             Man, I felt like I could lay down and die
                      A
             Then I found my life in the song          

                     F#m
             And yeah, yeah, yeah
                                           E
             It's coming straight from my heart
                               F#m
             And yeah, yeah, yeah
                              E
             I gotta' let it go
                            F#m        Lead guitar
             Yeah, yeah, yeah          1[--------2--
                                       2[----2------
                                       3[--2---2----



        INTRO X 4

        END:    E

 
       
           Please rate it.





Comments


Popular Girls tabs & chords
Ghostmouth Chords
Heartbreaker Chords
Hellhole Ratrace 1 Chords
Just A Song Chords
Heartbreaker Tabs
Oh Boy Tabs
Ghostmouth Ukulele
Life In San Francisco Ukulele
My Ma Ukulele
Vomit Intro Ukulele


Song lyrics



↑ Back to top | Tablatures and chords are parodies/interpretations of the original songs. You may use it for private study, scholarship, research or language learning purposes only
© 2014 AZChords.com Contact us | Privacy policy | DMCA | Add/correct tabs | Request tabs | Top 50 tabs