» » »

Girls, Carolina Tabs (ver.1)

Artists:  A B C D E F G H I J K L M N O P Q R S T U V W X Y Z # 

Carolina Tabs (ver.1)

Girls Tabs
Rating:
5/5 (1 vote)
Carolina lessons Tabs too difficult? Try these video lessons and learn fast
                
Intro (picking guitar):
E|---------------0----------------------------0-------------|
B|---------0-------0-----0--------------0-------0-----0-----|
G|-----6-----6-------6-----6--------6-----6-------6-----6---|
D|---7---7-----7-------7-----7----7---7-----7-------7-----7-|
A|-0----------------------------0---------------------------|
E|----------------------------------------------------------|

E|---------------0----------------------------0-------------|
B|---------0-------0-----0--------------0-------0-----0-----|
G|-----5-----5-------5-----5--------5-----5-------5-----5---|
D|---7---7-----7-------7-----7----7---7-----7-------7-----7-|
A|-0----------------------------0---------------------------|
E|----------------------------------------------------------|

Mess around with the picking a bit, adding in a F# (7th fret on B string
during the first part)

(Slide guitar):
E|--/17\~----------------------------|
B|--/17\~-----------------20--\-17~--|
G|------------------------------17~--|
D|-----------------------------------|
A|-----------------------------------|
E|-----------------------------------|
This is the main riff. The rest is just variations of it.

*Another guitar with a flanger is playing little riffs that match the chords that the 
picking guitar plays

Verse
*Play the picked notes from the intro as chords:
   A  Am
E|-0--0---|
B|-0--0---|
G|-6--5---|
D|-7--7---|
A|-0--0---|
E|-X--X---|

Get the reaction
Get in right now
Find a connection
Get it right now

Get the connection
Get it right now
Satisfaction
Get it right now

With the Speed of sound
With the Speed of sound
With the Speed of sound
Speed of sound

CHORUS

A
I'm going to pick you up baby, throw you over my shoulder

Take you away; I'm going to carry you home
       Bm
To Carolina, Carolina

Away to Southern Carolina
                    A
And then I'll never let you go

A
So many people want to leave; I don't know why they don't just go
Let's get out of here; I want to carry you home
       Bm
To Carolina, Carolina

Away to Southern Carolina
                    A
And then I'll never let you go

       Bm
To Carolina, Carolina

Away to Southern Carolina
                    A
And then I'll never let you go

       Bm
To Carolina, Carolina

Away to Southern Carolina
                    A
And then I'll never let you go

OUTRO RIFF

    A            D
E|-----------------------|
B|------2--------3---3---|
G|----2---2----2---2---2-|
D|--2--------2-----------|
A|-----------------------|
E|-----------------------|

End with the following x 4:   A   D D D A
            

comments powered by Disqus
↑ Back to top | Girls Tabs for Carolina. Lyrics for acoustic guitar and electric guitar. Tablatures and chords are parodies/interpretations of the original songs. You may use it for private study, scholarship, research or language learning purposes only