>
 >
Rindu Rasul

Rindu Rasul Bass Tabs

Gigi - Rindu Rasul chords, tabs, tablatures, lyrics

Guitar lessons | Add/correct | Request | Top 50 tabs Artists:  A B C D E F G H I J K L M N O P Q R S T U V W X Y Z 0-9

Rindu Rasul Bass Tabs – Gigi

CD, Sheet music, Poster

Do you like Rindu Rasul? Share with your friends now
Bass Tabs
This is my first bass tab..
Please rate..

Tuning : E,A,D,G

Intro :
G|---------------------------------|
D|---------------------------------|
A|---------------------------------|
E|---------------------------------|

Verse 1 :
G|---------------------------------|
D|---------------------------------|
A|------------------6--6-6-5------|
E|--3-3-3-6-6--6-----------6-5--|

G|---------------------------------|
D|---------------------------------|
A|------------------6--6--6-5------|
E|--3--3--0-1--1--0-----------6-5--|

G|---------------------------------|
D|---------------------------------|
A|------------------6--6-6-5------|
E|--3-3-3-6-6--6-----------6-5--|

G|---------------------------------|
D|---------------------------------|
A|------------------6--6--6-5------|
E|--3--3--0-1--1--0-----------6-5--|


Chorus :
G|----------------|----------------|
D|----------------|----------------|
A|----------------|----------------|
E|--3--3--0-3-----|--3--3--0-3-----|

G|----------------|----------------|
D|----------------|----------------|
A|----------------|----------------|
E|--3--3--0-3-----|--3--3--0-3h8---|

G|---------------------------------------------|
D|---------------------------------------------|
A|--10--10----8----6--6---5-----3--3---5-------|
E|---------10----8------6---6-5------3----5-3--|

Verse 1 :
G|---------------------------------|
D|---------------------------------|
A|------------------6--6-6-5------|
E|--3-3-3-6-6--6-----------6-5--|

G|---------------------------------|
D|---------------------------------|
A|------------------6--6--6-5------|
E|--3--3--0-1--1--0-----------6-5--|

G|---------------------------------|
D|---------------------------------|
A|------------------6--6-6-5------|
E|--3-3-3-6-6--6-----------6-5--|

G|---------------------------------|
D|---------------------------------|
A|------------------6--6--6-5------|
E|--3--3--0-1--1--0-----------6-5--|


Chorus :
G|---------------------------------------------|
D|---------------------------------------------|
A|--10--10----8----6--6---5-----3--3---5-------|
E|---------10----8------6---6-5------3----5-3--|

G|---------------------------------------------|
D|---------------------------------------------|
A|--10--10----8----6--6---5-----3--3---5-------|
E|---------10----8------6---6-5------3----5-3--|

Verse 2 :
G|-------------------------------|-------------------------------|
D|-------------------------------|-------------------------------|
A|----------------6--6--6-6-6-6--|--------------------------35--|
E|--3--3--3-3-3-3----------------|--1--1--1-1-1-1-6--6--6-6------|

G|-------------------------------|-------------------------------|
D|-------------------------------|-------------------------------|
A|-------------------------------|--6--6--6-6-6-6-5--5--5-5-5-5--|
E|--3--3--3-3-3-3-5--5--5-5-5-5--|-------------------------------|

G|-------------------------------|-------------------------------|
D|-------------------------------|-------------------------------|
A|----------------6--6--6-6-6-6--|--------------------------35--|
E|--3--3--3-3-3-3----------------|--1--1--1-1-1-1-6--6--6-6------|

G|-------------------------------|-------------------------------|
D|-------------------------------|-------------------------------|
A|-------------------------------|--6--6--6-6-6-6-5--5--5-5-5-5--|
E|--3--3--3-3-3-3-5--5--5-5-5-5--|-------------------------------|

Verse 1 :
G|---------------------------------|
D|---------------------------------|
A|------------------6--6-6-5------|
E|--3-3-3-6-6--6-----------6-5--|

G|---------------------------------|
D|---------------------------------|
A|------------------6--6--6-5------|
E|--3--3--0-1--1--0-----------6-5--|

G|---------------------------------|
D|---------------------------------|
A|------------------6--6-6-5------|
E|--3-3-3-6-6--6-----------6-5--|

G|---------------------------------|
D|---------------------------------|
A|------------------6--6--6-5------|
E|--3--3--0-1--1--0-----------6-5--|

Chorus :
G|---------------|---------------|
D|---------------|---------------|
A|---------------|---------------|
E|--5--5--5-5-5--|--5--5--5-5-5--|

G|---------------|---------------|
D|---------------|---------------|
A|---------------|---------------|
E|--5--5--5-5-5--|--5--5--5-5-5--|

G|---------------|---------------|
D|---------------|---------------|
A|---------------|---------------|
E|--5--5--5-5-5--|--5--5--5-5-5--|

G|---------------|---------------|
D|---------------|---------------|
A|---------------|---------------|
E|--5--5--5------|---------------|

Verse 2 :
G|-------------------------------|-------------------------------|
D|-------------------------------|-------------------------------|
A|----------------6--6--6-6-6-6--|--------------------------35--|
E|--3--3--3-3-3-3----------------|--1--1--1-1-1-1-6--6--6-6------|

G|-------------------------------|-------------------------------|
D|-------------------------------|-------------------------------|
A|-------------------------------|--6--6--6-6-6-6-5--5--5-5-5-5--|
E|--3--3--3-3-3-3-5--5--5-5-5-5--|-------------------------------|

G|-------------------------------|-------------------------------|
D|-------------------------------|-------------------------------|
A|----------------6--6--6-6-6-6--|--------------------------35--|
E|--3--3--3-3-3-3----------------|--1--1--1-1-1-1-6--6--6-6------|

G|-------------------------------|-------------------------------|
D|-------------------------------|-------------------------------|
A|-------------------------------|--6--6--6-6-6-6-5--5--5-5-5-5--|
E|--3--3--3-3-3-3-5--5--5-5-5-5--|-------------------------------|

G|-------------------------------|-------------------------------|
D|-------------------------------|-------------------------------|
A|-------------------------------|-------------------------------|
E|-------------------------------|-------------------------------|


That is great song..

Go Indonesian song..


Kukuh a.k.a Little Chilli





Comments


Popular Gigi tabs & chords
Nakal Bass Tabs
Cinta Lalu Chords
Dengan Menyebut Nama Allah Chords
Rindukan Damai Chords
Tuhan Chords
11 Januari Tabs
Akhirnya Tabs
Cinta Lalu Ukulele
Space Ukulele
Tuhan Ukulele


Song lyrics



↑ Back to top | Tablatures and chords are parodies/interpretations of the original songs. You may use it for private study, scholarship, research or language learning purposes only
© 2014 AZChords.com Contact us | Privacy policy | DMCA | Add/correct tabs | Request tabs | Top 50 tabs