>
 >
Un Estate Italiana

Un Estate Italiana Guitar Tabs

Gianna Nannini - Un Estate Italiana chords, tabs, tablatures, lyrics

Guitar lessons | Add/correct | Request | Top 50 tabs Artists:  A B C D E F G H I J K L M N O P Q R S T U V W X Y Z 0-9

Un Estate Italiana Guitar Tabs – Gianna Nannini

CD, Sheet music, Poster

Do you like Un Estate Italiana? Share with your friends now
Bass TabsChordsTabsUkulele

Tuning: E A D G B E


Gtr I (E A D G B E) - 'Guitar'
Gtr II (E A D G B E) - 'Guitar'
Gtr III (E A D G B E) - 'Strings'
Gtr IV (E A D G B E) - 'Voice'
Gtr V (E A D G B E) - 'Strings'

  Q=116
 4/4
  Gtr I
  H    Q  E S S   Q   Q   +H        +H.      E  S  S    Q   Q   +H
|-----------7-5-|-7--10--(10)----|-(10)--------------|-----12--(12)----|
|---------------|----------------|-------------12-10-|-12--------------|
|---------------|----------------|-------------------|-----------------|
|---------------|----------------|-------------------|-----------------|
|---------------|----------------|-------------------|-----------------|
|---------------|----------------|-------------------|-----------------|
|
| Gtr II
| H    Q  E S S   Q   Q   +H        +H.      E  S  S    Q   Q   +H
|---------------|----------------|-------------------|-----------------|
|---------------|-----3---(3)----|--(3)--------------|------5---(5)----|
|-----------4-2-|-4--------------|--------------4--2-|--4--------------|
|---------------|----------------|-------------------|-----------------|
|---------------|----------------|-------------------|-----------------|
|---------------|----------------|-------------------|-----------------|
|
| Gtr III
| W               H       +H         W                  W
|---------------|----------------|-------------------|-----------------|
|---------------|-3-------(3)----|-------------------|--0--------------|
|---------------|-4-------(4)----|---2---------------|--0--------------|
|---------------|----------------|-------------------|-----------------|
|---------------|----------------|-------------------|-----------------|
|---------------|-3-------(3)----|---2---------------|--0--------------|


   +H.       E  S  S    Q   Q   H       Q    Q   Q.     S  S    Q   H     Q
|-(12)---------12-10-|-12--15--------|-15---19---------------|----------------|
|--------------------|---------13----|-----------------------|----------------|
|--------------------|---------------|-----------------------|-----19---------|
|--------------------|---------------|----------21-----21-19-|-21-------------|
|--------------------|---------------|-----------------------|-----------21---|
|--------------------|---------------|-----------------------|----------------|
|
|  +H.       E  S  S    Q   Q   H       Q    Q   Q.     S  S    Q   H     Q
|--------------------|------3--------|--3----7---------------|----------------|
|--(5)----------5--3-|--5-------1----|-----------------------|----------------|
|--------------------|---------------|-----------------------|------7---------|
|--------------------|---------------|-----------9------9--7-|--9-------------|
|--------------------|---------------|-----------------------|------------9---|
|--------------------|---------------|-----------------------|----------------|
|
|  +W                   W               H.           Q          W
|--------------------|---------------|-----------------------|----------------|
|--(0)---------------|--1------------|--0--------------------|----------------|
|--(0)---------------|---------------|-----------------------|--2-------------|
|--------------------|---------------|-----------------------|--4-------------|
|--------------------|---------------|-----------------------|----------------|
|--(0)---------------|---------------|-----------------------|----------------|


   Q   E  E  E   E  E  E    +E  E E E E E E  E
|------------------------|--------------3-7-10-|
|---------------------20-|-(20)-------3-0-3--8-|
|------------------21-19-|-(19)-----5-0--------|
|--------24-22--24-22----|----------4----------|
|-22--22-24-22--24-------|---------------------|
|-----24-----------------|---------------------|
|
|  Q   E  E  E   E  E  E    +E  E E E E E E  E
|-------------------3--8-|--(8)--------------7-|
|----------------5-------|----------------8----|
|---------9--7-----------|--------------7------|
|-----10-----------------|----------7-9--------|
|-10---------------------|---------------------|
|------------------------|---------------------|
|
|  H        +Q.        E     W
|------------------------|---------------------|
|--1--------(1)----------|---0-----------------|
|--0--------(0)----------|---------------------|
|------------------------|---------------------|
|------------------------|---------------------|
|------------------------|---------------------|


                          Gtr IV
   +E   E E E  E  E  Q    Q    Q    Q     Q
|-(10)------8-12----10--|-7----7----7----10----|
|--(8)----8-8-13-12-12--|----------------------|
|-------9-9------12-----|----------------------|
|------10---------------|----------------------|
|-----------------------|----------------------|
|-----------------------|----------------------|
|
|                         Gtr V
|  +E   E E E  E  E  Q    E E  E E  E  E  E  E
|--(7)---------5-----3--|---7-10-7-15----------|
|-----------5-----5-----|---0----0-------15----|
|---------5-------------|------7---12-16----16-|
|-------7---------------|----------------12----|
|-----------------------|-------------14----14-|
|-----------------------|----------------------|
|
|   W                     W
|-----------------------|-3--------------------|
|---1-------------------|-3--------------------|
|---0-------------------|-4--------------------|
|---2-------------------|----------------------|
|-----------------------|----------------------|
|-----------------------|----------------------|


  Gtr III
   W                          W
|--2-----------------------|----------------------------|
|--------------------------|----------------------------|
|--2-----------------------|--0-------------------------|
|--------------------------|--2-------------------------|
|--------------------------|----------------------------|
|--------------------------|----------------------------|
|
| Gtr IV
|  Q.        E  E  E  E  E   +E   E +Q     +E   E  Q
|-10------------8--7--5--3-|-(3)--3-(3)----(3)----------|
|--------------------------|----------------------------|
|--------------------------|----------------------------|
|--------------------------|----------------------------|
|--------------------------|----------------------------|
|--------------------------|----------------------------|
|
| Gtr V
|  E   E  E  E  E  E  E  E    E   E  E   E  E   E  E  E
|--------------14----------|---------------15-----------|
|--------15----------15----|--------17------------17----|
|-----14----14-11-14----14-|-----16-----16-12--16----16-|
|--------12----------12----|--------14------------14----|
|-----------12----12----12-|-----14-----14-----14----14-|
|-----17-------------------|----------------------------|


  +W                         W
|--------------------------|--------------------------|
|--------------------------|-3------------------------|
|-(0)----------------------|-4------------------------|
|-(2)----------------------|-5------------------------|
|--------------------------|--------------------------|
|--------------------------|--------------------------|
|
|  W                         Q     E  E +E   E +E   E
|--------------------------|-7-----7--7-(7)--7-(7)-10-|
|--------------------------|--------------------------|
|--------------------------|--------------------------|
|--------------------------|--------------------------|
|--------------------------|--------------------------|
|--------------------------|--------------------------|
|
|  E   E  E  E  E  E  E  E   E  E  E  E  E   E  E   E
|--------------15----------|------------15------------|
|--------17----------17----|------15-----------15-----|
|-----16----16-12-16----16-|---16----16-12--16-----16-|
|--------14----------14----|------12-----------12-----|
|-----14----14----14----14-|---14----14-----14-----14-|
|--------------------------|--------------------------|


    W                               W
|-------------------------------|----------------------------|
|-------------------------------|---0------------------------|
|---2---------------------------|---0------------------------|
|---4---------------------------|----------------------------|
|-------------------------------|----------------------------|
|-------------------------------|----------------------------|
|
|  +E   E  +E   E  E  E  +E   E    +E   E +E   E  H
|-(10)-10-(10)--8--7-10-(10)-10-|-(10)-----------------------|
|-------------------------------|-------8-(8)----------------|
|-------------------------------|----------------------------|
|-------------------------------|----------------------------|
|-------------------------------|----------------------------|
|-------------------------------|----------------------------|
|
|   E   E   E   E  E  E   E   E     E   E  E   E  E  E  E  E
|-----------------14------------|----------------15----------|
|----------15------------15-----|---------15-----------15----|
|------14------14-11-14------14-|------16-----16-12-16----16-|
|----------12------------12-----|---------12-----------12----|
|--------------12----12------12-|------14-----14----14----14-|
|------17-----------------------|----------------------------|


  +W                              W
|------------------------------|---------------------------|
|-(0)--------------------------|--1------------------------|
|-(0)--------------------------|--0------------------------|
|------------------------------|--2------------------------|
|------------------------------|---------------------------|
|------------------------------|---------------------------|
|
|  Q      Q     +E   E  +E   E    Q     E  E  +Q      E  E
|--------15----(15)-15-(15)-14-|-14----12-12-(12)----12-12-|
|------------------------------|---------------------------|
|------------------------------|---------------------------|
|------------------------------|---------------------------|
|------------------------------|---------------------------|
|------------------------------|---------------------------|
|
|  E   E  E  E   E   E   E   E    E  E  E  E   E   E  E  E
|---------------15-------------|---------------------------|
|--------15-------------15-----|-------17-----20-----------|
|-----16----16--12--16------16-|----17----17------17-21----|
|--------12-------------12-----|-------14-----17--------22-|
|-----14----14------14------14-|----15----15---------19----|
|------------------------------|------------------20----20-|


  Gtr I
    W                   H        Q  E E
|---------------------|-----------------|
|---------------------|-----------------|
|---------------------|-----------------|
|---------------------|---------------9-|
|---------------------|-----------------|
|---------------------|-----------------|
|
| Gtr III
|   W                   W
|---------------------|-----------------|
|---0-----------------|-1---------------|
|---1-----------------|-2---------------|
|---------------------|-----------------|
|---------------------|-----------------|
|---------------------|-----------------|
|
| Gtr IV
|  +Q    Q  E  E E  E   E E +Q   H
|-(12)--13----12---10-|-8-8-(8)---------|
|---------------------|-----------------|
|---------------------|-----------------|
|---------------------|-----------------|
|---------------------|-----------------|
|---------------------|-----------------|


   E  E  E  E  +E   E  +E   E    W
|-----------------------------|------------------------|
|-----------------------------|------------------------|
|-----------------------------|------------------------|
|-10-12-13-15-(15)-17-(17)-19-|-21---------------------|
|-----------------------------|------------------------|
|-----------------------------|------------------------|
|
|  H           +Q.          E    H      +H
|-----------------------------|------------------------|
|-----------------------------|--0------(0)------------|
|--0-----------(0)------------|--0------(0)------------|
|--1-----------(1)------------|--0------(0)------------|
|-----------------------------|------------------------|
|-----------------------------|------------------------|
|
|  W                             Q  E E +E  S S S S  E
|-----------------------------|--7--7-7-(7)-7---7---10-|
|-----------------------------|------------------------|
|-----------------------------|------------------------|
|-----------------------------|------------------------|
|-----------------------------|------------------------|
|-----------------------------|------------------------|


    W                         W
|---------------------------|----------------|
|---------------------------|----------------|
|--19-----------------------|----------------|
|---------------------------|----------------|
|---------------------------|----------------|
|---------------------------|----------------|
|
|   W                         W
|---------------------------|----------------|
|---------------------------|-0--------------|
|---2-----------------------|-0--------------|
|---4-----------------------|----------------|
|---------------------------|----------------|
|---------------------------|----------------|
|
|  +E  E  E  E  +E   E E  E   E E +E  E H
|-(10)---10-12-(12)---------|----------------|
|-------------------12---10-|-8-8-(8)--------|
|------------------------14-|----------------|
|---------------------------|----------------|
|---------------------------|----------------|
|---------------------------|----------------|


   Q   E S S H         E   E  E  E S S E  E E
|-------------------|------------3--------3---|
|--------0-0-0------|-------------------------|
|--------0-0-0------|------------0--------0---|
|-------------------|-17------5----5----------|
|-------------------|-------------------------|
|-------------------|-15--15--3--------3----3-|
|
| +W                   W
|-------------------|--3----------------------|
|-(0)---------------|--3----------------------|
|-(0)---------------|--4----------------------|
|-------------------|-------------------------|
|-------------------|-------------------------|
|-------------------|-------------------------|
|
|  H         Q  E E   +E   E +E  E E   E  E E
|-----------------7-|-(7)--7-(7)-7-----7-10---|
|-------------------|--------------------12---|
|-------------------|-------------------------|
|-------------------|-------------------------|
|-------------------|-------------------------|
|-------------------|-------------------------|


   E  E E E  E  E E E    E  E  E  E E E E E
|--2------2-------2---|--3--------3-----3---|
|--3----3-3--3--3-3---|--5-----5--5---5-5---|
|---------------------|---------------------|
|-----0---------0---2-|-----2--2------2---2-|
|---------------------|---------------------|
|---------------------|---------------------|
|
|  W                     W
|--2------------------|--0------------------|
|---------------------|--0------------------|
|--2------------------|--0------------------|
|---------------------|---------------------|
|---------------------|---------------------|
|---------------------|---------------------|
|
|  Q.     E +E  E E E   +E  E +E  E H
|-10------8-(8)-7-5-3-|-(3)-----------------|
|---------------------|-----5-(5)-----------|
|---------------------|---------------------|
|---------------------|---------------------|
|---------------------|---------------------|
|---------------------|---------------------|


   E  E E E E E +E  E     E  E E E S S E  E   E
|--3--------------------|-3------3--------3-----|
|--5----5-3-------------|-----------------------|
|-----4-----2-0-(0)-----|-0------0--------0-----|
|-------2-----------2---|----5-5---5------------|
|-----------------------|-----------------------|
|-----------------------|------3-------3------3-|
|
| +W                      W
|-(0)-------------------|-----------------------|
|-(0)-------------------|-3---------------------|
|-(0)-------------------|-4---------------------|
|-----------------------|-5---------------------|
|-----------------------|-----------------------|
|-----------------------|-----------------------|
|
|  H        Q    E  S S   Q.     E E   E +E   E
|----------------7--7---|-7------7-----7-(7)-10-|
|-----------------------|-----------------------|
|-----------------------|-----------------------|
|-----------------------|-----------------------|
|-----------------------|-----------------------|
|-----------------------|-----------------------|


   E  E E E E E  E E    E  E E E  E    E E E
|--2------2------2---|--3------3---------3---|
|--3----3-3-3-3--3---|-----------------------|
|--------------------|--0------0---------0---|
|-----0-------0----2-|-------5---------5---5-|
|--------------------|-----------------------|
|--------------------|-------3---------3---3-|
|
|  W                    W
|--------------------|-----------------------|
|--------------------|--0--------------------|
|--2-----------------|--0--------------------|
|--4-----------------|-----------------------|
|--------------------|-----------------------|
|--------------------|-----------------------|
|
|  Q.     E E E  Q      Q.     E +S  S E Q
|-10------8---7-10---|-10--------------------|
|--------------------|---------8-(8)---------|
|--------------------|-----------------------|
|--------------------|-----------------------|
|--------------------|-----------------------|
|--------------------|-----------------------|


   E  E  E E  E E  E  E    E E  E  E   S  S E  E E
|--3-------3-------3----|--8-------8-----------8---|
|-----------------------|--------------------------|
|--0-------0-------0----|--5-5--5--5---5-------5---|
|--------5------5-------|--------------------------|
|-----------------------|-------------------3----3-|
|--------3----3-3-----3-|-------8------------------|
|
| +W                       W
|-----------------------|--------------------------|
|-(0)-------------------|--1-----------------------|
|-(0)-------------------|--0-----------------------|
|-----------------------|--2-----------------------|
|-----------------------|--------------------------|
|-----------------------|--------------------------|
|
|  Q     Q    Q    E  E    Q    E  E  +Q       Q
|-------15---15---14-14-|-14---12-12-(12)-----12---|
|-----------------------|--------------------------|
|-----------------------|--------------------------|
|-----------------------|--------------------------|
|-----------------------|--------------------------|
|-----------------------|--------------------------|


   E E E  E   E   E  E E    E E E E E E E E
|--7------7----------7---|--5-----5-----5---|
|--5---5--5---5------5---|--5---5-5---5-5---|
|-----------------9------|------------------|
|------------------------|----------------5-|
|----7------------7----7-|------------------|
|------------------------|------5-----5---8-|
|
|  W                        W
|------------------------|------------------|
|--0---------------------|--1---------------|
|--1---------------------|--2---------------|
|------------------------|------------------|
|------------------------|------------------|
|------------------------|------------------|
|
|  Q   E  E  +E   E  E E    Q   Q   H
|-12-----13-(13)-12-10-8-|------------------|
|------------------------|-10---------------|
|------------------------|------------------|
|------------------------|------------------|
|------------------------|------------------|
|------------------------|------------------|


  E E E E E E  E E    E E  E  E  E  E   E  E
|-3----------------|-------------------------|
|-4-----8------8---|----------3---------3----|
|-----8-8---8--8---|--7----4--4-----4---4--2-|
|------------------|--9----------------------|
|------------------|-------------------------|
|-----8---8-8----8-|-------3--------3--------|
|
| W                   W
|------------------|-------------------------|
|------------------|--0----------------------|
|-0----------------|--0----------------------|
|-1----------------|--0----------------------|
|------------------|-------------------------|
|------------------|-------------------------|
|
| H       Q    Q      Q    E  E  E  E  +Q
|------------------|-------------------------|
|-------------10---|-12---12-12-12-12-(12)---|
|------------------|-------------------------|
|------------------|-------------------------|
|------------------|-------------------------|
|------------------|-------------------------|


   E E E E E  E  E E   E   E  E  E E E E E   W               Q.    E  H
|--2-----2-------2-3-|-3-------------------|--------------|----------------|
|--3---3-3----3--3---|-----------8-----8---|--------------|----------------|
|------------------0-|-0-------------------|-7------------|----------------|
|------0------0------|--------5--5---5-5---|-5------------|--7-----7--7----|
|--------------------|---------------------|--------------|--5-----5--5----|
|--------------------|---------------------|--------------|----------------|
|
|  W                   W                     H     H         W
|--------------------|---------------------|--------------|--2-------------|
|--------------------|-0-------------------|--------------|--3-------------|
|--2-----------------|-0-------------------|--------------|--2-------------|
|--4-----------------|---------------------|--------------|----------------|
|--------------------|---------------------|--------------|----------------|
|--------------------|---------------------|-3------------|----------------|
|
|  H       E  E  Q     S S E +Q    H         H     Q   Q     Q.    E  H
|-12-----------------|---------------------|------10--15--|-15----14-17----|
|------------10-10---|-8---8-(8)-----------|--------------|----------------|
|--------------------|---------------------|--------------|----------------|
|--------------------|---------------------|--------------|----------------|
|--------------------|---------------------|--------------|----------------|
|--------------------|---------------------|--------------|----------------|


   +W                         Q.    E  H
|--------------------------|----------------|
|--------------------------|----------------|
|--------------------------|----------------|
|--(7)---------------------|--5-----5--5----|
|--(5)---------------------|--5-----5--5----|
|--------------------------|----------------|
|
|  +W                         W
|--(2)---------------------|--3-------------|
|--(3)---------------------|--0-------------|
|--(2)---------------------|----------------|
|--------------------------|----------------|
|--------------------------|----------------|
|--------------------------|----------------|
|
|  +Q   Q   E.  S  +S   E.    Q.    E  H
|-(17)-----19--19-(19)-19--|-17----15-19----|
|--------------------------|----------------|
|--------------------------|----------------|
|--------------------------|----------------|
|--------------------------|----------------|
|--------------------------|----------------|


  +W                Q.         E H
|----------------|------------------------|
|----------------|------------------------|
|----------------|------------------------|
|-(5)------------|--5----------5-5--------|
|-(5)------------|------------------------|
|----------------|--8----------8-8--------|
|
| +W                W
|-(3)------------|------------------------|
|-(0)------------|--5---------------------|
|----------------|--5---------------------|
|----------------|------------------------|
|----------------|------------------------|
|----------------|------------------------|
|
|  H      Q   Q     E   E  +E  E E  E  Q
|--------19--17--|-15--15-(15)-----15-19--|
|----------------|------------------------|
|----------------|------------------------|
|----------------|------------------------|
|----------------|------------------------|
|----------------|------------------------|


   Q.          E   H            Q.   E H
|----------------------------|--------------|
|----------------------------|--------------|
|----------------------------|--------------|
|--7-----------7---7---------|--5----5-5----|
|--5-----------5---5---------|--5----5-5----|
|----------------------------|--------------|
|
|  W                            W
|----------------------------|--------------|
|--7-------------------------|--8-----------|
|--7-------------------------|--------------|
|--7-------------------------|--9-----------|
|----------------------------|--------------|
|----------------------------|--------------|
|
|  E   E  +E   E  +E   E  Q     H      H
|-17--17-(17)-15-(15)-15-19--|-19-----------|
|----------------------------|--------------|
|----------------------------|--------------|
|----------------------------|--------------|
|----------------------------|--------------|
|----------------------------|--------------|


  +W                Q.    E  H
|----------------|------------------|
|----------------|------------------|
|----------------|------------------|
|-(5)------------|--7-----7--7------|
|-(5)------------|--5-----5--5------|
|----------------|------------------|
|
| +H      H         W
|----------------|------------------|
|-(8)------------|--7---------------|
|----------------|--7---------------|
|-(9)------------|--7---------------|
|----------------|------------------|
|----------------|------------------|
|
|  H      Q   Q     Q.    E  Q   Q
|----------------|----------17--17--|
|------------20--|-20----19---------|
|--------19------|------------------|
|----------------|------------------|
|----------------|------------------|
|----------------|------------------|


  +W                   Q.    E  H
|-------------------|------------------|
|-------------------|------------------|
|-------------------|------------------|
|-(7)---------------|--5-----5--5------|
|-(5)---------------|--5-----5--5------|
|-------------------|------------------|
|
| +W                   W
|-------------------|------------------|
|-(7)---------------|--8---------------|
|-(7)---------------|------------------|
|-(7)---------------|--9---------------|
|-------------------|------------------|
|-------------------|------------------|
|
|  H      E E  E  E    Q.    E  Q.   E
|--------19---19-19-|-17----15-19------|
|-------------------|------------------|
|-------------------|------------------|
|-------------------|------------------|
|-------------------|------------------|
|-------------------|------------------|


  +W                Q.         E H
|----------------|-----------------------|
|----------------|-----------------------|
|----------------|-----------------------|
|-(5)------------|--5----------5-5-------|
|-(5)------------|-----------------------|
|----------------|--8----------8-8-------|
|
| +W                W
|----------------|-----------------------|
|-(8)------------|-----------------------|
|----------------|--9--------------------|
|-(9)------------|-10--------------------|
|----------------|-----------------------|
|----------------|-----------------------|
|
|  H      Q   Q     E   E  +E  E Q  E  E
|--------19--17--|-15--15-(15)--------15-|
|----------------|-----------------------|
|----------------|-----------------------|
|----------------|-----------------------|
|----------------|-----------------------|
|----------------|-----------------------|


   Q.      E   H            Q.   E H
|------------------------|--------------|
|------------------------|--------------|
|------------------------|--------------|
|--7-------7---7---------|--5----5-5----|
|--5-------5---5---------|--5----5-5----|
|------------------------|--------------|
|
|  W                        W
|------------------------|--------------|
|--7---------------------|--8-----------|
|--7---------------------|--------------|
|--7---------------------|--9-----------|
|------------------------|--------------|
|------------------------|--------------|
|
|  Q    E  E  +E   E  Q     H      H
|-20---20-19-(19)-17-15--|-15-----------|
|------------------------|--------------|
|------------------------|--------------|
|------------------------|--------------|
|------------------------|--------------|
|------------------------|--------------|


   W               E E  E E  S S E  E E
|---------------|--3------3---------3----|
|---------------|------------------------|
|---------------|--0------0---------0----|
|---------------|----5--5----5-----------|
|--5------------|------------------------|
|--3------------|-------3--------3----3--|
|
| +H     H         W
|---------------|------------------------|
|-(8)-----------|--8---------------------|
|---------------|--7---------------------|
|-(9)-----------|--9---------------------|
|---------------|------------------------|
|---------------|------------------------|
|
|  H     Q   Q     Q    Q    E   E  Q
|---------------|------------------------|
|---------------|------------------15----|
|-----------16--|-16---16---16-----------|
|---------------|------------------------|
|---------------|------------------------|
|---------------|------------------------|


   E E E E  E  E  E E    E E E E E E E E
|--2-----2--------2---|--3-----3-----3---|
|--3---3-3--3--3--3---|--5---5-5---5-5---|
|---------------------|------------------|
|----0---------0----2-|----2-2-----2---2-|
|---------------------|------------------|
|---------------------|------------------|
|
|  W                     W
|---------------------|------------------|
|--7------------------|------------------|
|---------------------|--9---------------|
|--7------------------|--9---------------|
|---------------------|-10---------------|
|---------------------|------------------|
|
|  H        E  E  E E    Q   Q   H
|---------------------|------------------|
|-15-------13-12-10-8-|------------------|
|---------------------|--9---------------|
|---------------------|------------------|
|---------------------|------------------|
|---------------------|------------------|


    E  E E E E E +E  E    E E E E  S  S E  E   E
|---3------------------|--3-----3----------3------|
|---5----5-3-----------|--------------------------|
|------4-----2-0-(0)---|--0-----0----------0------|
|--------2-----------2-|----5-5----5--------------|
|----------------------|--------------------------|
|----------------------|------3---------3------3--|
|
|  +W                     W
|----------------------|--------------------------|
|----------------------|--------------------------|
|--(9)-----------------|--7-----------------------|
|--(9)-----------------|--9-----------------------|
|-(10)-----------------|-10-----------------------|
|----------------------|--------------------------|
|
|   H        Q    Q       Q   E E +E    E +E   E
|-----------------7----|--7---7-7-(7)---7-(7)-10--|
|----------------------|--------------------------|
|----------------------|--------------------------|
|----------------------|--------------------------|
|----------------------|--------------------------|
|----------------------|--------------------------|


   E E E E E E  E E    E E E E E E E E
|--2-----2------2---|--3-----3-----3---|
|--3---3-3-3-3--3---|------------------|
|-------------------|--0-----0-----0---|
|----0-------0----2-|------5-----5---5-|
|-------------------|------------------|
|-------------------|------3-----3---3-|
|
|  W                   W
|-------------------|------------------|
|-------------------|------------------|
|-------------------|------------------|
|--7----------------|--9---------------|
|--9----------------|-10---------------|
|-------------------|------------------|
|
|  E E Q   E E  Q      H       Q   Q
|-10-8-------7-10---|-10---------------|
|-------------------|----------8-------|
|-------------------|------------------|
|-------------------|------------------|
|-------------------|------------------|
|-------------------|------------------|


    E  E E  E   E   E  E E    E  E  E E S S E  E E
|---3-------3----------3---|--8-------8--------8----|
|--------------------------|------------------------|
|---0-------0----------0---|--5--5--5-5-5------5----|
|--------5----------5------|------------------------|
|--------------------------|----------------3----3--|
|--------3------3---3----3-|--------8---------------|
|
|  +W                         W
|--------------------------|------------------------|
|--------------------------|------------------------|
|--------------------------|------------------------|
|--(9)---------------------|-10---------------------|
|-(10)---------------------|-10---------------------|
|--------------------------|-12---------------------|
|
|   Q    E  E  +E   E  Q      E  E  Q   Q      Q
|----------15-(15)-15-14---|-14-12-12---------12----|
|--------------------------|------------------------|
|--------------------------|------------------------|
|--------------------------|------------------------|
|--------------------------|------------------------|
|--------------------------|------------------------|


   E E  E E  E E  E  E    E E E E   E  E E E
|--7------7-------7----|--5-----5--------5---|
|--5----5-5--5----5----|--5---5-5------5-5---|
|--------------9-------|---------------------|
|----------------------|-------------------5-|
|----7---------7-----7-|---------------------|
|----------------------|------5--------5---8-|
|
|  W                      H        +Q.     E
|----------------------|---------------------|
|----------------------|---------------------|
|----------------------|---------------------|
|--9-------------------|-10-------(10)-------|
|-11-------------------|-12-------(12)-------|
|----------------------|---------------------|
|
|  Q    Q    Q    E  E    Q   Q     H
|-12---13---12---10-10-|--8------------------|
|----------------------|---------------------|
|----------------------|---------------------|
|----------------------|---------------------|
|----------------------|---------------------|
|----------------------|---------------------|


   E E E E E E E E    E E E E E E E E
|--3---------------|------------------|
|--4-----8-----8---|--------3-----3---|
|------8-8---8-8---|--7---4-4---4-4-2-|
|------------------|--9---------------|
|------------------|------------------|
|------8---8-8---8-|------3-----3-----|
|
|  W                  W
|------------------|------------------|
|------------------|------------------|
|------------------|------------------|
|------------------|--9---------------|
|-10---------------|-10---------------|
|-11---------------|-10---------------|
|
|  W                  Q   Q   E E Q
|------------------|--7---7---7-7-7---|
|------------------|------------------|
|------------------|------------------|
|------------------|------------------|
|------------------|------------------|
|------------------|------------------|


   E E  E E E E  E  E    E   E  E  E E E E E   W               Q.    E  H
|--2------2------2--3-|--3-------------------|--------------|----------------|
|--3----3-3---3--3----|------------8-----8---|--------------|----------------|
|-------------------0-|--0-------------------|-7------------|----------------|
|-------0-----0-------|---------5--5---5-5---|-5------------|--7-----7--7----|
|---------------------|----------------------|--------------|--5-----5--5----|
|---------------------|----------------------|--------------|----------------|
|
|  W                     W                     H     H         W
|---------------------|----------------------|--------------|--2-------------|
|---------------------|----------------------|--------------|--3-------------|
|---------------------|----------------------|--------------|--2-------------|
|--7------------------|--9-------------------|--------------|----------------|
|--9------------------|-10-------------------|--------------|----------------|
|---------------------|----------------------|-3------------|----------------|
|
|  Q    H        E  E    S S E +Q    H         H     Q   Q     Q.    E  H
|-10---12-------------|----------------------|------10--15--|-15----14-17----|
|---------------10-10-|--8---8-(8)-----------|--------------|----------------|
|---------------------|----------------------|--------------|----------------|
|---------------------|----------------------|--------------|----------------|
|---------------------|----------------------|--------------|----------------|
|---------------------|----------------------|--------------|----------------|


   +W                              Q.    E  H
|-------------------------------|----------------|
|-------------------------------|----------------|
|-------------------------------|----------------|
|--(7)--------------------------|--5-----5--5----|
|--(5)--------------------------|--5-----5--5----|
|-------------------------------|----------------|
|
|  +Q   +S  S E  H                 W
|--(2)--(2)---------------------|--3-------------|
|--(3)--(3)---------------------|--0-------------|
|--(2)--(2)---------------------|----------------|
|-------------------------------|----------------|
|-------------------------------|----------------|
|-------------------------------|----------------|
|
|  +Q    Q       E.  S  +S   E.    Q.    E  H
|-(17)----------19--19-(19)-19--|-17----15-19----|
|-------------------------------|----------------|
|-------------------------------|----------------|
|-------------------------------|----------------|
|-------------------------------|----------------|
|-------------------------------|----------------|


  +W                  Q.         E H
|------------------|--------------------------|
|------------------|--------------------------|
|------------------|--------------------------|
|-(5)--------------|--5----------5-5----------|
|-(5)--------------|--------------------------|
|------------------|--8----------8-8----------|
|
| +H      H           W
|-(3)--------------|--------------------------|
|-(0)--------------|--5-----------------------|
|------------------|--5-----------------------|
|------------------|--------------------------|
|------------------|--------------------------|
|------------------|--------------------------|
|
|  H      Q   E  E    E   E  +E  E E  E  E E
|--------19--17-17-|-15--15-(15)-----15-19----|
|------------------|--------------------------|
|------------------|--------------------------|
|------------------|--------------------------|
|------------------|--------------------------|
|------------------|--------------------------|


   Q.      E  H         Q.         E   H
|--------------------|-------------------------|
|--------------------|-------------------------|
|--------------------|-------------------------|
|--7-------7--7------|--5----------5---5-------|
|--5-------5--5------|--5----------5---5-------|
|--------------------|-------------------------|
|
|  W                    W
|--------------------|-------------------------|
|--7-----------------|--8----------------------|
|--7-----------------|-------------------------|
|--7-----------------|--9----------------------|
|--------------------|-------------------------|
|--------------------|-------------------------|
|
|  E  E  Q    Q   Q     E   E  +Q     +E  E Q
|-17----17---15--15--|-19--19-(19)---(19)------|
|--------------------|-------------------------|
|--------------------|-------------------------|
|--------------------|-------------------------|
|--------------------|-------------------------|
|--------------------|-------------------------|


  +W                Q.    E  H
|----------------|------------------|
|----------------|------------------|
|----------------|------------------|
|-(5)------------|--7-----7--7------|
|-(5)------------|--5-----5--5------|
|----------------|------------------|
|
| +H      H         W
|----------------|------------------|
|-(8)------------|--7---------------|
|----------------|--7---------------|
|-(9)------------|--7---------------|
|----------------|------------------|
|----------------|------------------|
|
|  H      Q   Q     Q.    E  Q   Q
|----------------|----------17--17--|
|------------20--|-20----19---------|
|--------19------|------------------|
|----------------|------------------|
|----------------|------------------|
|----------------|------------------|


  +W                  Q.    E  H        +W                Q.         E H
|------------------|------------------|----------------|-----------------------|
|------------------|------------------|----------------|-----------------------|
|------------------|------------------|----------------|-----------------------|
|-(7)--------------|--5-----5--5------|-(5)------------|--5----------5-5-------|
|-(5)--------------|--5-----5--5------|-(5)------------|-----------------------|
|------------------|------------------|----------------|--8----------8-8-------|
|
| +W                  W                 +W                W
|------------------|------------------|----------------|-----------------------|
|-(7)--------------|--8---------------|-(8)------------|-----------------------|
|-(7)--------------|------------------|----------------|--9--------------------|
|-(7)--------------|--9---------------|-(9)------------|-10--------------------|
|------------------|------------------|----------------|-----------------------|
|------------------|------------------|----------------|-----------------------|
|
|  H      Q   E  E    Q.    E  Q.   E    H      Q   Q     E   E  +E  E Q  E  E
|--------19--19-19-|-17----15-19------|--------19--17--|-15--15-(15)--------15-|
|------------------|------------------|----------------|-----------------------|
|------------------|------------------|----------------|-----------------------|
|------------------|------------------|----------------|-----------------------|
|------------------|------------------|----------------|-----------------------|
|------------------|------------------|----------------|-----------------------|


   Q.      E   Q.       S  S    Q   Q   +H
|-----------------------7----|--7--10--(10)----|
|-----------------------0-10-|--0--------------|
|----------------------------|------7---(7)----|
|--7-------7---7-----------7-|-----------------|
|--5-------5---5-------------|-----------------|
|----------------------------|-----------------|
|
|  W                            W
|----------------------------|-----------------|
|--7-------------------------|--8--------------|
|--7-------------------------|--7--------------|
|--7-------------------------|--9--------------|
|----------------------------|-----------------|
|----------------------------|-----------------|
|
|  Q    E  E  +E   E  Q         H        H
|-20---20-19-(19)-17-15------|-15--------------|
|----------------------------|-----------------|
|----------------------------|-----------------|
|----------------------------|-----------------|
|----------------------------|-----------------|
|----------------------------|-----------------|


   +H.      E S  S   Q   Q   +H
|-(10)--------7----|-7--12--(12)----|
|-------------0-10-|-0--------------|
|--(7)-------------|-----9---(9)----|
|----------------7-|----------------|
|------------------|----------------|
|------------------|----------------|
|
|   W                W
|------------------|----------------|
|------------------|----------------|
|------------------|-9--------------|
|---7--------------|-9--------------|
|------------------|----------------|
|------------------|----------------|
|
|   W                W
|------------------|----------------|
|------------------|----------------|
|------------------|----------------|
|------------------|----------------|
|------------------|----------------|
|------------------|----------------|


   +H.      E  S  S    Q   Q   Q.   E    Q   Q   Q  E  S  S    Q   H     Q
|-(12)--------12-10-|-12--15----------|-15--19--------------|---------------|
|-------------------|---------13------|---------------------|---------------|
|--(9)---------9--7-|--9--12----------|-12--16--16----16----|-16--19--------|
|-------------------|---------10------|------------------19-|-----------16--|
|-------------------|-----------------|---------------------|-----17--------|
|-------------------|-----------------|---------19----19-17-|-19--------14--|
|
| Gtr II
|   W                  W                 W                     W
|-------------------|-----------------|---------------------|--2------------|
|-------------------|-----------------|--3------------------|--3------------|
|---0---------------|--5--------------|--4------------------|--2------------|
|---0---------------|--5--------------|---------------------|---------------|
|-------------------|--3--------------|--2------------------|---------------|
|-------------------|-----------------|---------------------|---------------|
|
| Gtr III
|   W                  W                 W                     W
|-------------------|-----------------|---------------------|---------------|
|-------------------|--8--------------|---------------------|--7------------|
|---7---------------|--9--------------|--7------------------|---------------|
|-------------------|-10--------------|-10------------------|--7------------|
|-------------------|-----------------|---------------------|---------------|
|-------------------|-----------------|---------------------|---------------|


   Q.    E  E  E  E  E    +E  E E  E  E  E  E E   W          W
|----------------------|------------------------|----------|-----------|
|-------------------17-|-(17)--------------15---|----------|-----------|
|-------------16-17-17-|-(17)-----------16-16---|----------|-----------|
|-17----16-17-16-17----|-------------17-17------|----------|-----------|
|-------17-19----------|----------17-17---------|----------|-----------|
|-15-------------------|----------19------------|----------|-----------|
|
|  W                       W                      W          W
|----------------------|------------------------|----------|-----------|
|--5-------------------|---3--------------------|----------|-----------|
|----------------------|---0--------------------|----------|-----------|
|--5-------------------|------------------------|----------|-----------|
|--3-------------------|---2--------------------|----------|-----------|
|----------------------|------------------------|----------|-----------|
|
|  W                       W                      W          H    H
|----------------------|------------------------|----------|-----------|
|--8-------------------|------------------------|-8--------|-7---------|
|--9-------------------|---7--------------------|-7--------|-----------|
|-10-------------------|--10--------------------|-7--------|-----------|
|----------------------|------------------------|----------|-----------|
|----------------------|------------------------|----------|------2----|


  Gtr III
   W                           +H                  H
|--3-------------------------|-(3)------------------------|
|--3-------------------------|-(3)------------------------|
|--4-------------------------|-(4)------------------------|
|----------------------------|----------------------------|
|----------------------------|---------------------2------|
|--3-------------------------|-(3)------------------------|
|
| Gtr IV
|  Q.    E  E S  S  +S   E S    E  S  S  +S   E S  Q   Q
|-17----15-19---22-(22)-22---|-24----22-(22)--------------|
|----------------------------|---------------24---24--22--|
|----------------------------|----------------------------|
|----------------------------|----------------------------|
|----------------------------|----------------------------|
|----------------------------|----------------------------|


   W                        W
|------------------------|--2---------------------|
|--5---------------------|--3---------------------|
|--5---------------------|--2---------------------|
|--5---------------------|--0---------------------|
|--3---------------------|------------------------|
|------------------------|------------------------|
|
|  E  E  +E  E E  E  E E    E  E  +E   E  Q.    E
|-------------------19---|-17-17-(17)-15-17----15-|
|-20-20-(20)-----20------|------------------------|
|------------------------|------------------------|
|------------------------|------------------------|
|------------------------|------------------------|
|------------------------|------------------------|


  Gtr I
   Q      E   S  S  E.    S  +E   E    E.  S  +E   E  +Q.     E
|------------17-15-17----15-(15)----|---------------------------|
|--------------------------------17-|---------------------------|
|-----------------------------------|---------------------------|
|-----------------------------------|-17------------------------|
|-----------------------------------|-----17-(17)---------------|
|-----------------------------------|-------------15-(15)-------|
|
| Gtr III
|  W                                  +H.                   Q
|--3--------------------------------|-(3)-----------------------|
|--3--------------------------------|-(3)-----------------------|
|--4--------------------------------|-(4)-----------------------|
|-----------------------------------|---------------------------|
|-----------------------------------|---------------------------|
|--3--------------------------------|-(3)-----------------------|
|
| Gtr IV
|  E  E  +E   E     E  E      E   E    Q       Q       Q    E E
|-19-19-(19)-------17--------15-----|----------------------15---|
|--------------------------------17-|-15--------------15--------|
|-----------------------------------|---------------------------|
|-----------------------------------|---------------------------|
|-----------------------------------|---------------------------|
|-----------------------------------|---------------------------|


   Q.    E  H        +W
|------------------|-------------------|
|------------------|-------------------|
|--2-----2--2------|-(2)---------------|
|--0-----0--0------|-(0)---------------|
|------------------|-------------------|
|------------------|-------------------|
|
|  W                 +W
|--2---------------|-(2)---------------|
|--3---------------|-(3)---------------|
|--2---------------|-(2)---------------|
|------------------|-------------------|
|------------------|-------------------|
|------------------|-------------------|
|
|  Q.    E  Q   Q     H      E E  E  E
|-15----14-17--17--|--------19---19-19-|
|------------------|-------------------|
|------------------|-------------------|
|------------------|-------------------|
|------------------|-------------------|
|------------------|-------------------|


   Q.    E  H        +W
|------------------|----------------|
|------------------|----------------|
|--0-----0--0------|-(0)------------|
|--0-----0--0------|-(0)------------|
|------------------|----------------|
|------------------|----------------|
|
|  W                 +W
|--3---------------|-(3)------------|
|--0---------------|-(0)------------|
|------------------|----------------|
|------------------|----------------|
|------------------|----------------|
|------------------|----------------|
|
|  Q.    E  Q.   E    H      Q   Q
|-17----15-19------|--------19--17--|
|------------------|----------------|
|------------------|----------------|
|------------------|----------------|
|------------------|----------------|
|------------------|----------------|


   Q.         E H          Q.      E   Q.        S  S
|-----------------------|------------------------------|
|-----------------------|------------------------------|
|-----------------------|--2-------2---2--------21-----|
|--5----------5-5-------|--0-------0---0-----------24--|
|--3----------3-3-------|------------------------------|
|-----------------------|-----------------------24-22--|
|
|  W                       W
|-----------------------|------------------------------|
|--5--------------------|--7---------------------------|
|--5--------------------|--7---------------------------|
|-----------------------|--7---------------------------|
|-----------------------|------------------------------|
|-----------------------|------------------------------|
|
|  E   E  +E  E Q  E  E    Q    E  E  +E   E  E  E
|-15--15-(15)--------15-|-20---20-19-(19)-17-15-15-----|
|-----------------------|------------------------------|
|-----------------------|------------------------------|
|-----------------------|------------------------------|
|-----------------------|------------------------------|
|-----------------------|------------------------------|


   Q   Q   H       +H.             E  S  S
|---------------|--------------------------|
|---------------|--------------------------|
|-21--24--------|--------------------24-23-|
|---------22----|-(22)---------------------|
|-----22--------|--------------------22-21-|
|-24------20----|-(20)---------------------|
|
| Gtr II
|  W               +Q   +S  S E H
|---------------|--------------------------|
|---------------|--------------------------|
|--5------------|--(5)--(5)----------------|
|--5------------|--(5)--(5)----------------|
|--3------------|--(3)--(3)----------------|
|---------------|--------------------------|
|
| Gtr III
|  W               +W
|---------------|--------------------------|
|--8------------|--(8)---------------------|
|--9------------|--(9)---------------------|
|-10------------|-(10)---------------------|
|---------------|--------------------------|
|---------------|--------------------------|


   Q   Q   H      W
|---------------|--------------------|
|-----24--------|--------------------|
|-24------------|--------------------|
|-----21--24----|--------------------|
|-22------------|--------------------|
|---------22----|--------------------|
|
|  W              Q..   S +Q.   S S
|---------------|--------------------|
|---------------|--------------------|
|--4------------|-5-----4-(4)---2-2--|
|--5------------|-5-------------2-2--|
|---------------|-3-------------0-0--|
|---------------|-------7-(7)--------|
|
|  W              H        H
|---------------|--------------------|
|---------------|-5--------3---------|
|--7------------|-5--------5---------|
|--9------------|--------------------|
|---------------|--------------------|
|---------------|--------------------|


  H    Q  E  S  S    Q    Q   Q   Q
|-----------------|------------------|
|-----------------|------------------|
|-----------21----|-21---24------19--|
|--------------24-|----------22------|
|-----------------|------22----------|
|-----------24-22-|-24-------20--22--|
|
| W                 +H.           Q
|-----------------|------------------|
|-----------------|------------------|
|-2---------------|-(2)-----------4--|
|-2---------------|-(2)-----------5--|
|-0---------------|-(0)-----------2--|
|-----------------|------------------|
|
| W                 +H        Q   Q
|-0---------------|-(0)-----------3--|
|-1---------------|-(1)-----------3--|
|-2---------------|-(2)-----------4--|
|-----------------|------------------|
|-----------------|------------------|
|-----------------|------------------|


   H.       Q     H         +Q     +S  S  S  S
|--------------|--------------------------------|
|--------------|--------------------------------|
|-20-------22--|-24--------(24)---(24)----------|
|--------------|-------------------------21-19--|
|----------20--|-22--------(22)---(22)----------|
|-23-----------|-------------------------19-17--|
|
|  W              E  E E E   E  E   E     S  S
|--------------|--------------------------------|
|--------------|--------------------------------|
|--5-----------|--5--5-5-5---5--5---5-----------|
|--5-----------|--5--5-5-5---5--5---5-----5--5--|
|--3-----------|--3--3-3-3---3--3---3-----5--5--|
|--------------|--------------------------3--3--|
|
|  W             +W
|--3-----------|-(3)----------------------------|
|--4-----------|-(4)----------------------------|
|--5-----------|-(5)----------------------------|
|--------------|--------------------------------|
|--------------|--------------------------------|
|--------------|--------------------------------|


   Q   Q   +Q.    S  S    Q    Q   H       E  E Q  H
|----------------19-17-|-19---22--------|---------------*|
|----------------------|----------20----|---------------*|
|-16--19--(19)---16-14-|-16---19--------|--0------------*|
|----------------------|----------------|---------------*|
|-----17--(17)---------|----------------|---------------*|
|-19-------------------|----------------|---------------*|
|
|  H       +Q.    S  S    W                E  E Q  H
|----------------------|----------------|---------------*|
|----------------------|----------------|---------------*|
|----------------------|----------------|---------------*|
|--5-------(5)----5--5-|--5-------------|--5------------*|
|--5-------(5)----5--5-|--5-------------|---------------*|
|--3-------(3)----3--3-|--3-------------|---------------*|
|
|  W                     +W               +E  E Q  H
|--3-------------------|-(3)------------|-(3)-----------*|
|--3-------------------|-(3)------------|-(3)-----------*|
|--4-------------------|-(4)------------|-(4)-----------*|
|----------------------|----------------|---------------*|
|----------------------|----------------|---------------*|
|----------------------|----------------|---------------*|


Duration Legend
---------------
W - whole; H - half; Q - quarter; E - 8th; S - 16th; T - 32nd; X - 64th; a - acciaccatura
+ - note tied to previous; . - note dotted; .. - note double dotted
Uncapitalized letters represent notes that are staccato (1/2 duration)
Irregular groupings are notated above the duration line
Duration letters will always appear directly above the note/fret number it represents the
duration for.  Duration letters with no fret number below them represent rests.  Multi-
bar rests are notated in the form Wxn, where n is the number of bars to rest for.  Low
melody durations appear below the staff

Tablature Legend
----------------
 h   - hammer-on
 p   - pull-off
 b   - bend
 pb  - pre-bend
 r   - bend release (if no number after the r, then release immediately)
 /\  - slide into or out of (from/to "nowhere")
 s   - legato slide
 S   - shift slide
  - natural harmonic
[n]  - artificial harmonic
n(n) - tapped harmonic
 ~   - vibrato
 tr  - trill
 T   - tap
 TP  - trem. picking
 PM  - palm muting
\n/  - tremolo bar dip; n = amount to dip
 \n  - tremolo bar down
 n/  - tremolo bar up
/n\  - tremolo bar inverted dip
 =   - hold bend; also acts as connecting device for hammers/pulls
 <>  - volume swell (louder/softer)
 x   - on rhythm slash represents muted slash
 o   - on rhythm slash represents single note slash

Misc Legend
-----------
 |  - bar
||  - double bar
||o - repeat start
o|| - repeat end
*|  - double bar (ending)
 :  - bar (freetime)
 $  - Segno
 &  - Coda
Tempo markers -  = BPM(8/16=s8/s16), where s8 = swing 8ths, s16 = swing 16ths





Comments


Popular Gianna Nannini tabs & chords
Aria Chords
Bello E Impossibile Chords
Maledetto Ciao Chords
Sei Nell Anima Chords
Sei Nell'anima Chords
Aria Ukulele
Bello E Impossibile Ukulele
Fotoromanza Ukulele
Sei Nellanima Ukulele
Un Estate Italiana Ukulele


Song lyrics



↑ Back to top | Tablatures and chords are parodies/interpretations of the original songs. You may use it for private study, scholarship, research or language learning purposes only
© 2014 AZChords.com Contact us | Privacy policy | DMCA | Add/correct tabs | Request tabs | Top 50 tabs