» » »

Ghosts, The World Is Outside Tabs (ver.1)

Artists:  A B C D E F G H I J K L M N O P Q R S T U V W X Y Z # 

The World Is Outside Tabs (ver.1)

Ghosts Tabs
Rating:
4/5 (1 vote)
The World Is Outside lessons Tabs too difficult? Try these video lessons and learn fast
                -------------------------------------------------------------------------------
-------------------------------------------------------------------------------




Intro

   F             Bb
e |-------------|-------------|-------------|-------------|  x2
B |-------------|-------------|-------------|-------------|
G |-------------|-------------|-------------|-------------|
D |--7--7--7--7-|--8--8--8--8-|--8--8--8--8-|--8--8--8--8-|
A |-8--8--8--8--|-8--8--8--8--|-8--8--8--8--|-8--8--8--8--|
E |-------------|-------------|-------------|-------------|


F                       D#
Where'd your sense of adventure go?
    Bb                       D#        F
You sit at home, with dinner on a tray,
                 D#   Bb      D#
The world is outside.

F                      D#
Do you remember how it used to be,
   Bb             D#            F
At 17, I've never been the same,
          D#   Bb               D#
Forgot my lies.


     G#                      G#       Bb
She said, we could do anything, we can do anything,
Fm    Cm
Oh oh oh oh,
           D#            Bb
Open your eyes; the world is outside your door,
Fm    Cm
Oh oh oh,
                    D#      Bb
Don't tell me your story if you don't have one.


F                  D#
The last Monday in January,
     Bb                     D#          F
Is apparently the worst day of the year,
               D#   Bb     D#
Maybe they're right,

F                      D#
I don't even know what day it is,
    Bb                          D#          F
I'm tired of this, wish we were kids again,
                 D#     Bb    D#
With time on our side,


      G#                      G#       Bb
She said, we could do anything, we can do anything,
Fm    Cm
Oh oh oh oh,
          D#          Bb
Open your eyes; the world is outside your door,
Fm    Cm
Oh oh oh,
            D#              Bb
You're kidding yourself 'cos everything else is old.

Fm    Cm
Oh oh oh oh,
           D#               Bb
Open your eyes; the world is outside your door,
Fm    Cm
Oh oh oh,
                   D#           Bb     D#   Bb
Don't tell me your story if you don't have one.


G#    C    Bb G#
   Ohhhhhhhhhh
G#    C    Bb G#
   Ohhhhhhhhhh
G#    C    Bb  F
   Ohhhhhhhhhhh

   F           Cm          D#          Bb          F           Cm
e |-5---------|-----------|---6-------|-----------|-5---------|-----------|
B |---6-----5-|-4---4---4-|-8---8-----|-6-8-6-----|---6-----5-|-4---4---4-|
G |-----5-----|-------5---|-------8---|-------7-5-|-----5-----|-------5---|
D |-------7---|-----------|---------8-|-----------|-------7---|-----------|
A |-----------|-----------|-----------|-----------|-----------|-----------|
E |-----------|-----------|-----------|-----------|-----------|-----------|

   D#          Bb
  |-6-6-------|-----------|
  |-----8----8|-6-8-6-----|
  |-------8---|-------7-5-|
  |---------8-|-----------|
  |-----------|-----------|
  |-----------|-----------|


Fm    Cm
Oh oh oh oh,
          D#                Bb
Open your eyes; the world is outside your door,
Fm    Cm
Oh oh oh,
        D#                  Bb
You're kidding yourself 'cos everything else is old.

Fm    Cm
Oh oh oh oh,
                      D#             Bb
You're taking your time, the world is outside your door,
Fm    Cm
Oh oh oh,
                   D#           Bb     D#   Bb   F
Don't tell me your story if you don't have one.

Outro

e |-------------|-------------|  x4
B |-------------|-------------|
G |-------------|-------------|
D |-------33----|-11----------|
A |----33----33-|----33----33-|
E |-11----------|-------11----|      End on:  Fm
            
Submit corrections

comments powered by Disqus
↑ Back to top | Ghosts Tabs for The World Is Outside. Lyrics for acoustic guitar and electric guitar. Tablatures and chords are parodies/interpretations of the original songs. You may use it for private study, scholarship, research or language learning purposes only