» » »

Get Up Kids, I'll Catch You Tabs (ver.1)

Artists:  A B C D E F G H I J K L M N O P Q R S T U V W X Y Z # 

I'll Catch You Tabs (ver.1)

Get Up Kids Tabs
 Rating:
4/5 (4 votes)
I'll Catch You lessons Tabs too difficult? Try these video lessons and learn fast
                

Verse: 

guitar 1 (keyboard or piano arranged for guitar): 

-----------------------------0-------------------
----0---2-2-3-2-0--2*---0-3-2-0--0-2-0----
---2-2---2---------------2---------2-----------
--2---2-----------------0-----------------------
-0-----------------------------------------------
----------------------2*-------------------------

*these two notes played together (i tried to line them up the best i could), finger-pick if you want. 

guitar (played after keyboard plays 3 times, one time before vocals start): 

-------------------------------------------------------------
----0---2--2-0-2-0--------2---3---2-----------------------
---2-2---2--------2------2--2---2---2--------------------------
--2---2-----------------0-----0----0---0--------------------
-0----------------------------------------------------------
-----------------------2-------------------------------------

then (last time before the chorus): 

-------------------------------------------------------------
----0---2--2-0-2-0--------2---3----5/7---------------------
---2-2---2--------2------2--2---2-----------------------------
--2---2-----------------0-----0----0-----------------------
-0----------------------------------------------------------
-----------------------2-------------------------------------

Chorus (I'm not totally sure about this part): 

D---------A 

---5---------5-4-----------------------------------------
-----3-5---------5----------------------------------------
--------------------4-2----------------------------------
-0-------------------------------------------------
-------------0----------------------------------------
----------------------------------------------------

Bridge: 

F#m-E-D--F#m-E--A 

-2----0--2----2----0--0---------------------------------
-2----0--3----2----0--2--------------------------------
-2----1--2----2----1--2--------------------------------
-4----2--0----4----2--2--------------------------------
-4----2--------4----2--0--------------------------------
-2----0--------2----0----------------------------------

That's basically it; e-mail me if you get confused, I will try to make it more clear. 

backward -SKIP- forward 

back 
            
Submit corrections

comments powered by Disqus
↑ Back to top | Get Up Kids Tabs for I'll Catch You. Lyrics for acoustic guitar and electric guitar. Tablatures and chords are parodies/interpretations of the original songs. You may use it for private study, scholarship, research or language learning purposes only