» » »

The Chair Tabs (ver.1)

Artists:  A B C D E F G H I J K L M N O P Q R S T U V W X Y Z # 

The Chair Tabs (ver.1)

George Strait
Rating:
0/5 (0 votes)

Hard to play? Try these video lessons and learn fast.
                The Chair

The steel intro:let all notes ring 
e-5p4------5p4-----
b----5--------5----
g-----4/6------4/6-
d------------------
a------------------
e------------------

the ending
e-7-9-5--10-7-9-5p4-----
b------------------5----
g-------------------4/6-
d-----------------------
a-----------------------
e-----------------------
            
Hard to play? Try these video lessons and learn fast. | Correct




comments powered by Disqus
↑ Back to top | Tablatures and chords are parodies/interpretations of the original songs. You may use it for private study, scholarship, research or language learning purposes only