» » »

George Strait, She'll Leave You With A Smile Tabs (ver.1)

Artists:  A B C D E F G H I J K L M N O P Q R S T U V W X Y Z # 

She'll Leave You With A Smile Tabs (ver.1)

George Strait Tabs
 Rating:
4/5 (4 votes)
She'll Leave You With A Smile lessons Tabs too difficult? Try these video lessons and learn fast
                Intro

e------0-2-0-0--0-2-0-0--0-2-0-----0-2-0------0--------------------
B-----0-0---0--0-0---0--0-0---0---0-----0------4-------4-4-------2-
G--------------------------------------------6--6-----4---4-----2-2
D----2--------2--------2-------2-0----------6----6---4---------2---
A-2>4------------------------------------5-4------4-2------2-0-----
E------------------------------------------------------------------

e----------------0-2-0-----
B--------4-4----0----------
G-------4---4--------------
D----2-4-----------------2-
A-2>4-2------2>4------2>4--
E-------------------------0

Chords for verse

  E E7  C#m B A B E

e-0--0--4---2-0-2-0--------
B-0--0--5---4-2-4-0--------
G-1--1--6---4-2-4-1--------
D-2--0--6---4-2-4-2--------
A-2--2--4---2-0-2-2--------
E-0--0--X---0-0-0-X-2-4-2-0

Well you can't help...

e-4--0--0--
B-5--2--0--
G-6--2--1--
D-6--2--2--
A-4--0--2--
E-X--X--0--

And all that hurting...

e-4--0--2--0--0--0-
B-5--2--4--4--4--4-
G-6--2--4--4--4--4-
D-6--2--4--4--4--4-
A-4--0--2--0--0--0-
E-X--X--X--0--4--2-

Ha! I finally got this thing fixed. And... Shantel's tab is cool. But this tab is fer 
ppl who dun have a capo... Yeah...
            
Submit corrections

comments powered by Disqus
↑ Back to top | George Strait Tabs for She'll Leave You With A Smile. Lyrics for acoustic guitar and electric guitar. Tablatures and chords are parodies/interpretations of the original songs. You may use it for private study, scholarship, research or language learning purposes only