» » »

George Strait, Give It All We Got Tonight Tabs (ver.1)

Artists:  A B C D E F G H I J K L M N O P Q R S T U V W X Y Z # 

Give It All We Got Tonight Tabs (ver.1)

George Strait Tabs
 Rating:
4/5 (4 votes)
Give It All We Got Tonight lessons Tabs too difficult? Try these video lessons and learn fast
1
                Hey, everyone.  This is the first tab I've done, but I think it's pretty close to 100% accuracy.  
The verses and chorus proceeding the intro roughly follow the same progression as in the intro (G, D, Am, C).  
Comments and critiques welcome!


Standard Tuning, No Capo


h = slow hammer on or off
/ = quick hammer on or off
__= slide


E||-------3----3--3-3--||------------------------2----2--2--||--------------------0----0--0--||--
B||-------3----3--3-3--||--3----3---------3------3----3--3--||--3----3------------1----1--1--||--
G||-------0----0--0-0--||--0----0h2--2/4--0/2----2----2--2--||--2h4--2h0--0--0/2--2----2--2--||--
D||-------0------------||--0h2-------------------0----0--0--||--------------------2----2--2--||--
A||--0h2--2------------||-----------------------------------||-------------------------------||--
E||-------3------------||-----------------------------------||-------------------------------||--
	   G			     D				        Am


E||-------------------------0-----------------------||--
B||-------------------------1--1__3--3--1__3--3--1--||--
G||--2/4--2h0------------0--0--2__4--4--2__4--4--2--||--  
D||------------2h0--0h2-----------------------------||--  
A||-------------------------------------------------||--  
E||-------------------------------------------------||--
	        C
            
Submit corrections

comments powered by Disqus
↑ Back to top | George Strait Tabs for Give It All We Got Tonight. Lyrics for acoustic guitar and electric guitar. 1 Tablatures and chords are parodies/interpretations of the original songs. You may use it for private study, scholarship, research or language learning purposes only