>
 >
Carried Away

Carried Away Guitar Tabs

George Strait - Carried Away chords, tabs, tablatures, lyrics

Guitar lessons | Add/correct | Request | Top 50 tabs Artists:  A B C D E F G H I J K L M N O P Q R S T U V W X Y Z 0-9

Carried Away Guitar Tabs – George Strait

CD, Sheet music, Poster

Do you like Carried Away? Share with your friends now
ChordsChords v2TabsUkulele
George strait has to be the best county singers i think.He never changed his 
style of music and never changed his clothing either thats what i like about 
george strait. He just released his 50 number ones in 2004 and i think the cds 
great.Heres 1 of my favorite songs carried away.

Verse 1 
I don't take my whiskey to extremes 
E|--------------------------------||
B|--------------------------------||
G|-------0------------------------||
D|-0-0-2---4-2-0-0----------------||
A|-----------------3--------------||
E|--------------------------------||


Don't believe in chasin' crazy dreams
E|--------------------------------||
B|---------------0----------------||
G|-------0-2-0-2---2-0------------||
D|---0-2--------------------------||
A|-2------------------------------||
E|--------------------------------||

My Feet are planted firmly on the ground, but darlin'
E|--------------------------------||
B|--------------------------------||
G|---------0----------------------||
D|-----0-2---4-2-0-0------2-------||
A|-2-2---------------3--3---------||
E|--------------------------------||

When you come around I get carried away
E|--------------------------------||
B|------------------0-0-----0-----||
G|-0-0-0----------------2-0-------||
D|-------2-2-0----0---------------||
A|--------------------------------||
E|--------------------------------||

By the look and the light in your eyes before i even realize 
E|---------------------------0-----------||
B|-0---0-0---0------0----0-3---3-0-------||
G|---2-----2---2-0-----0-----------2-0---||
D|---------------------------------------||
A|---------------------------------------||
E|---------------------------------------||

The ride i'm on baby im long gone 
E|--------------------------------||
B|--------------------------------||
G|--------------------------------||
D|---0-2-0-2-2-2-0----------------||
A|-2---------------4-2-0----------||
E|--------------------------------||

I get carried away nothin' matters but bein' with you 
E|--------------------------------||
B|---0-0-----0-0---0-----0-----0--||
G|-------2-0-----2---2-0---2-0----||
D|-0------------------------------||
A|--------------------------------||
E|--------------------------------||

Like a feather flyin high up in the sky on a windy day 
E|-----0-----------------------------||
B|-0-3---3-0-------------------------||
G|-----------2-0---0-2-0-----0-2-0---||
D|---------------2-------2-2---------||
A|-----------------------------------||
E|-----------------------------------||

I get carried away 
E|----------------||
B|-----0----------||
G|-------2-0-0----||
D|-0-0------------||
A|----------------||
E|----------------||

Then for verse 2 play the same notes as verse 1 but here are the 
additional lyrics

2. It might seem like an ordinary night;
same ol' stars, the same ol' moon up high.
But when i see you standin' at your door 
nothin's ordinary anymore.

Then after verse 2 go back to the chorus 
what i advise you to do is sing along to gwt the struming pattern
and timing down then this should be 100% correct. 





Comments


Popular George Strait tabs & chords
House Across The Bay Chords
I Need Someone Like Me Chords
Murder On Music Row 1 Chords
Stay Out of My Arms Chords
You Know Me Better Than That (capo) Chords
Amarillo By Morning 1 Tabs
Seashores Of Old Mexico Tabs
I Aint Her Cowboy Anymore Ukulele
Lead On Ukulele
When Did You Stop Loving Me Ukulele


Song lyrics



↑ Back to top | Tablatures and chords are parodies/interpretations of the original songs. You may use it for private study, scholarship, research or language learning purposes only
© 2014 AZChords.com Contact us | Privacy policy | DMCA | Add/correct tabs | Request tabs | Top 50 tabs