>
 >
The Breath You Take

The Breath You Take Guitar Tabs

George Straight - The Breath You Take chords, tabs, tablatures, lyrics

Guitar lessons | Add/correct | Request | Top 50 tabs Artists:  A B C D E F G H I J K L M N O P Q R S T U V W X Y Z 0-9

The Breath You Take Guitar Tabs – George Straight

CD, Sheet music, Poster

Do you like The Breath You Take? Share with your friends now
ChordsTabsUkulele
-------------------------------------------------------------------------------
                             The Breath You Take - George Strait
-------------------------------------------------------------------------------

This song is complete and is 100% correct (:  I provided you with the strumming
pattern so you don't have to keep going back and listening to the song.  I thought
that would be easier for everyone. (:

Tuning:  EADGBe
        Bm                                       G
e|-----------------2---------------------------------2-----------------------------|
B|----------3---------3-----3---------------2--------------------------------------|
G|-------------4---------4----------------------0----------------------------------|
D|------4--------------------------------------------------------------------------|
A|---2------------------------------------2----------------------------------------|
E|-------------------------------------3-------------------------------------------|

    Bm                                           A
e|-----------------2--------------------------------0------------------------------|
B|----------3---------3-----3--------------2---------------------------------------|
G|-------------4---------4---------------------2-----------------------------------|
D|------4--------------------------------2-----------------------------------------|
A|---2--------------------------------0--------------------------------------------|
E|---------------------------------------------------------------------------------|

Verse 1:

       Bm                                                      Gmaj
       V  V   U  U  V  U  V  V  U  U  V  U   V  V   U  U  V  U  V  V  U  U   V  U
e|---2--2--2--2--2--2--2--2--2--2--2--2--2--2--2--2--2--2--2--2--2--2--2--2-----|
B|---3--3--3--3--3--4--4--4--4--4--4--4--2--2--2--2--2--2--2--2--2--2--2--2-----|
G|---4--4--4--4--4--4--4--4--4--4--4--4--0--0--0--0--0--0--0--0--0--0--0--0-----|   X2
D|---4--4--4--4--4--4--4--4--4--4--4--4--0--0--0--0--0--0--0--0--0--0--0--0-----|
A|---2--2--2--2--2--2--2--2--2--2--2--2--2--2--2--2--2--2--2--2--2--2--2--2-----|
E|----x--x--x--x--x--x--x---x--x--x---x--x--3--3--3--3--3--3--3--3--3--3--3--3--|

      Em                                                      F#M
       V  V  U  U  V   U  V  V  U  U  V   U  V  V  U  U  V  U  V   V  U  U  V  U
e|---0--0--0--0--0--0--0--0--0--0--0--0--2--2--2--2--2--2--2--2--2--2--2--2-----|
B|---0--0--0--0--0--0--0--0--0--0--0--0--2--2--2--2--2--2--2--2--2--2--2--2-----|
G|---0--0--0--0--0--0--0--0--0--0--0--0--2--2--2--2--2--2--2--2--2--2--2--2-----|
D|---2--2--2--2--2--2--2--2--2--2--2--2--4--4--4--4--4--4--4--4--4--4--4--4-----|
A|---2--2--2--2--2--2--2--2--2--2--2--2--4--4--4--4--4--4--4--4--4--4--4--4-----|
E|---x--x--x---x--x--x---x--x--x--x--x---x--2--2--2--2--2--2--2--2--2--2--2--2--|

       Gmaj                                                  A
       V  V  U  U  V   U  V  V  U  U  V   U  V  V   U  U  V  U  V  V  U  U  V  U
e|---2--2--2--2--2--2--2--2--2--2--2--2--0--0--0--0--0--0--0--0--0--0--0--0-----|
B|---2--2--2--2--2--2--2--2--2--2--2--2--2--2--2--2--2--2--2--2--2--2--2--2-----|
G|---0--0--0--0--0--0--0--0--0--0--0--0--2--2--2--2--2--2--2--2--2--2--2--2-----|
D|---0--0--0--0--0--0--0--0--0--0--0--0--2--2--2--2--2--2--2--2--2--2--2--2-----|
A|---2--2--2--2--2--2--2--2--2--2--2--2--0--0--0--0--0--0--0--0--0--0--2--2-----|
E|---3--3--3--3--3--3--3--3--3--3--3--3--x--x--x--x---x--x--x---x--x--x--x---x--|

Chorus:

       D                                                       Em
       V  V   U  U  V  U  V  V  U  U  V   U  V  V  U  U  V  U  V   V  U  U  V   U
e|---2--2--2--2--2--2--2--2--2--2--2--2--0--0--0--0--0--0--0--0--0--0--0--0-------|
B|---3--3--3--3--3--3--3--3--3--3--3--3--0--0--0--0--0--0--0--0--0--0--0--0-------|
G|---2--2--2--2--2--2--2--2--2--2--2--2--0--0--0--0--0--0--0--0--0--0--0--0-------|
D|---0--0--0--0--0--0--0--0--0--0--0--0--2--2--2--2--2--2--2--2--2--2--2--2-------|
A|---0--0--0--0--0--0--0--0--0--0--0--0--2--2--2--2--2--2--2--2--2--2--2--2-------|
E|---x--x--x--x--x---x--x---x--x--x--x--x--x--x---x--x---x--x--x--x---x--x--x--x--|

       Bm                                                     A
       V  V  U  U  V  U  V  V   U   U  V  U  V  V   U  U  V  U  V  V  U  U   V  U
e|---2--2--2--2--2--2--2--2--2--2--2--2--0--0--0--0--0--0--0--0--0--0--0--0-------|
B|---3--3--3--3--3--3--3--3--3--3--3--3--2--2--2--2--2--2--2--2--2--2--2--2-------|
G|---4--4--4--4--4--4--4--4--4--4--4--4--2--2--2--2--2--2--2--2--2--2--2--2-------|
D|---4--4--4--4--4--4--4--4--4--4--4--4--2--2--2--2--2--2--2--2--2--2--2--2-------|
A|---2--2--2--2--2--2--2--2--2--2--2--2--0--0--0--0--0--0--0--0--0--0--0--0-------|
E|--x--x--x--x--x--x--x--x--x--x--x--x--x---x--x--x--x--x---x--x--x--x---x--x--x--|

      Gmaj                                                  Em
       V  V  U  U  V   U  V  V  U  U  V  U  V   V  U  U  V   U  V  V   U  U  V  U
e|---2--2--2--2--2--2--2--2--2--2--2--2--0--0--0--0--0--0--0--0--0--0--0--0----|
B|---2--2--2--2--2--2--2--2--2--2--2--2--0--0--0--0--0--0--0--0--0--0--0--0----|
G|---0--0--0--0--0--0--0--0--0--0--0--0--0--0--0--0--0--0--0--0--0--0--0--0----|
D|---0--0--0--0--0--0--0--0--0--0--0--0--2--2--2--2--2--2--2--2--2--2--2--2----|
A|---2--2--2--2--2--2--2--2--2--2--2--2--2--2--2--2--2--2--2--2--2--2--2--2----|
E|---3--3--3--3--3--3--3--3--3--3--3--3--x--x--x--x---x--x--x--x--x---x--x--x--|

       A                         Asus4     A             D
       V  V  U  U  V  U  V   V  U   V  V  U   V  V   U  U  V  U  V  V  U  U   V  U
  e|--0--0--0--0--0--0--0--0--0--0--0--0--0--0--0--0--0--0--0--0--0--0--0--0-------|
B|---2--2--2--2--2--2--3--3--3--2--2--2--2--2--2--2--2--2--2--2--2--2--2--2--------|
G|---2--2--2--2--2--2--2--2--2--2--2--2--3--3--3--3--3--3--3--3--3--3--3--3--------|
D|---2--2--2--2--2--2--2--2--2--2--2--2--2--2--2--2--2--2--2--2--2--2--2--2--------|
A|---0--0--0--0--0--0--0--0--0--0--0--0--0--0--0--0--0--0--0--0--0--0--0--0--------|
E|---x--x--x--x---x--x--x--x---x--x--x--x---x--x--x--x---x--x--x---x--x--x--x---x--|

      Em                                                       A                       Asus4  A
       V  V  U  U  V   U  V  V  U  U  V   U  V  V   U  U  V  U  V  V  U  V
e|---0--0--0--0--0--0--0--0--0--0--0--0--0--0--0--0--0--0--0--0--0--0-------|
B|---0--0--0--0--0--0--0--0--0--0--0--0--2--2--2--2--2--2--3--3--3--2-------|
G|---0--0--0--0--0--0--0--0--0--0--0--0--2--2--2--2--2--2--2--2--2--2-------|
D|---2--2--2--2--2--2--2--2--2--2--2--2--2--2--2--2--2--2--2--2--2--2-------|
A|---2--2--2--2--2--2--2--2--2--2--2--2--0--0--0--0--0--0--0--0--0--0-------|
E|---x-x--x--x--x--x--x--x--x--x--x--x--x--x--x--x--x---x--x---x--x--x---x--|

Verse 2:

      Bm                                                      Gmaj
       V  V   U  U  V  U  V  V  U  U  V  U   V  V   U  U  V  U  V  V  U  U   V  U
e|---2--2--2--2--2--2--2--2--2--2--2--2--2--2--2--2--2--2--2--2--2--2--2--2-----|
B|---3--3--3--3--3--4--4--4--4--4--4--4--2--2--2--2--2--2--2--2--2--2--2--2-----|
G|---4--4--4--4--4--4--4--4--4--4--4--4--0--0--0--0--0--0--0--0--0--0--0--0-----|   X2
D|---4--4--4--4--4--4--4--4--4--4--4--4--0--0--0--0--0--0--0--0--0--0--0--0-----|
A|---2--2--2--2--2--2--2--2--2--2--2--2--2--2--2--2--2--2--2--2--2--2--2--2-----|
E|----x--x--x--x--x--x--x---x--x--x---x--x--3--3--3--3--3--3--3--3--3--3--3--3--|

      Em                                                      F#M
       V  V  U  U  V   U  V  V  U  U  V   U  V  V  U  U  V  U  V   V  U  U  V  U
e|---0--0--0--0--0--0--0--0--0--0--0--0--2--2--2--2--2--2--2--2--2--2--2--2-----|
B|---0--0--0--0--0--0--0--0--0--0--0--0--2--2--2--2--2--2--2--2--2--2--2--2-----|
G|---0--0--0--0--0--0--0--0--0--0--0--0--2--2--2--2--2--2--2--2--2--2--2--2-----|
D|---2--2--2--2--2--2--2--2--2--2--2--2--4--4--4--4--4--4--4--4--4--4--4--4-----|
A|---2--2--2--2--2--2--2--2--2--2--2--2--4--4--4--4--4--4--4--4--4--4--4--4-----|
E|---x--x--x---x--x--x---x--x--x--x--x---x--2--2--2--2--2--2--2--2--2--2--2--2--|

       Gmaj                                                  A
       V  V  U  U  V   U  V  V  U  U  V   U  V  V   U  U  V  U  V  V  U  U  V  U
e|---2--2--2--2--2--2--2--2--2--2--2--2--0--0--0--0--0--0--0--0--0--0--0--0-----|
B|---2--2--2--2--2--2--2--2--2--2--2--2--2--2--2--2--2--2--2--2--2--2--2--2-----|
G|---0--0--0--0--0--0--0--0--0--0--0--0--2--2--2--2--2--2--2--2--2--2--2--2-----|
D|---0--0--0--0--0--0--0--0--0--0--0--0--2--2--2--2--2--2--2--2--2--2--2--2-----|
A|---2--2--2--2--2--2--2--2--2--2--2--2--0--0--0--0--0--0--0--0--0--0--2--2-----|
E|---3--3--3--3--3--3--3--3--3--3--3--3--x--x--x--x---x--x--x---x--x--x--x---x--|

Chorus 2:


       D                                                       Em
       V  V   U  U  V  U  V  V  U  U  V   U  V  V  U  U  V  U  V   V  U  U  V   U
e|---2--2--2--2--2--2--2--2--2--2--2--2--0--0--0--0--0--0--0--0--0--0--0--0-------|
B|---3--3--3--3--3--3--3--3--3--3--3--3--0--0--0--0--0--0--0--0--0--0--0--0-------|
G|---2--2--2--2--2--2--2--2--2--2--2--2--0--0--0--0--0--0--0--0--0--0--0--0-------|
D|---0--0--0--0--0--0--0--0--0--0--0--0--2--2--2--2--2--2--2--2--2--2--2--2-------|
A|---0--0--0--0--0--0--0--0--0--0--0--0--2--2--2--2--2--2--2--2--2--2--2--2-------|
E|---x--x--x--x--x---x--x---x--x--x--x--x--x--x---x--x---x--x--x--x---x--x--x--x--|

       Bm                                                     A
       V  V  U  U  V  U  V  V   U   U  V  U  V  V   U  U  V  U  V  V  U  U   V  U
e|---2--2--2--2--2--2--2--2--2--2--2--2--0--0--0--0--0--0--0--0--0--0--0--0-------|
B|---3--3--3--3--3--3--3--3--3--3--3--3--2--2--2--2--2--2--2--2--2--2--2--2-------|
G|---4--4--4--4--4--4--4--4--4--4--4--4--2--2--2--2--2--2--2--2--2--2--2--2-------|
D|---4--4--4--4--4--4--4--4--4--4--4--4--2--2--2--2--2--2--2--2--2--2--2--2-------|
A|---2--2--2--2--2--2--2--2--2--2--2--2--0--0--0--0--0--0--0--0--0--0--0--0-------|
E|--x--x--x--x--x--x--x--x--x--x--x--x--x---x--x--x--x--x---x--x--x--x---x--x--x--|

      Gmaj                                                  Em
       V  V  U  U  V   U  V  V  U  U  V  U  V   V  U  U  V   U  V  V   U  U  V  U
e|---2--2--2--2--2--2--2--2--2--2--2--2--0--0--0--0--0--0--0--0--0--0--0--0----|
B|---2--2--2--2--2--2--2--2--2--2--2--2--0--0--0--0--0--0--0--0--0--0--0--0----|
G|---0--0--0--0--0--0--0--0--0--0--0--0--0--0--0--0--0--0--0--0--0--0--0--0----|
D|---0--0--0--0--0--0--0--0--0--0--0--0--2--2--2--2--2--2--2--2--2--2--2--2----|
A|---2--2--2--2--2--2--2--2--2--2--2--2--2--2--2--2--2--2--2--2--2--2--2--2----|
E|---3--3--3--3--3--3--3--3--3--3--3--3--x--x--x--x---x--x--x--x--x---x--x--x--|

       A                         Asus4     A             D
       V  V  U  U  V  U  V   V  U   V  V  U   V  V   U  U  V  U  V  V  U  U   V  U
  e|--0--0--0--0--0--0--0--0--0--0--0--0--0--0--0--0--0--0--0--0--0--0--0--0-------|
B|---2--2--2--2--2--2--3--3--3--2--2--2--2--2--2--2--2--2--2--2--2--2--2--2--------|
G|---2--2--2--2--2--2--2--2--2--2--2--2--3--3--3--3--3--3--3--3--3--3--3--3--------|
D|---2--2--2--2--2--2--2--2--2--2--2--2--2--2--2--2--2--2--2--2--2--2--2--2--------|
A|---0--0--0--0--0--0--0--0--0--0--0--0--0--0--0--0--0--0--0--0--0--0--0--0--------|
E|---x--x--x--x---x--x--x--x---x--x--x--x---x--x--x--x---x--x--x---x--x--x--x---x--|

      Em                                                       A
       V  V  U  U  V   U  V  V  U  U  V   U  V  V   U  U  V  U
e|---0--0--0--0--0--0--0--0--0--0--0--0--0--0--0--0--0--0--------|
B|---0--0--0--0--0--0--0--0--0--0--0--0--2--2--2--2--2--2--------|
G|---0--0--0--0--0--0--0--0--0--0--0--0--2--2--2--2--2--2--------|
D|---2--2--2--2--2--2--2--2--2--2--2--2--2--2--2--2--2--2--------|
A|---2--2--2--2--2--2--2--2--2--2--2--2--0--0--0--0--0--0--------|
E|---x-x--x--x--x--x--x--x--x--x--x--x--x--x--x--x--x---x--x-----|

Bridge:

      Gmaj                                                  Bm
       V  V  U  U  V   U  V  V  U  U  V   U  V  V   U  U  V  U  V  V  U  U  V  U
e|---2--2--2--2--2--2--2--2--2--2--2--2--0--0--0--0--0--0--0--0--0--0--0--0-----|
B|---2--2--2--2--2--2--2--2--2--2--2--2--3--3--3--3--3--3--3--3--3--3--3--3-----|
G|---0--0--0--0--0--0--0--0--0--0--0--0--4--4--4--4--4--4--4--4--4--4--4--4-----|
D|---0--0--0--0--0--0--0--0--0--0--0--0--4--4--4--4--4--4--4--4--4--4--4--4-----|
A|---2--2--2--2--2--2--2--2--2--2--2--2--2--2--2--2--2--2--2--2--2--2--2--2-----|
E|---3--3--3--3--3--3--3--3--3--3--3--3--x--x--x--x---x--x--x---x--x--x--x---x--|


      Em                                                       A                       Asus4  A
       V  V  U  U  V   U  V  V  U  U  V   U  V  V   U  U  V  U  V  V  U  V
e|---0--0--0--0--0--0--0--0--0--0--0--0--0--0--0--0--0--0--0--0--0--0-------|
B|---0--0--0--0--0--0--0--0--0--0--0--0--2--2--2--2--2--2--3--3--3--2-------|
G|---0--0--0--0--0--0--0--0--0--0--0--0--2--2--2--2--2--2--2--2--2--2-------|
D|---2--2--2--2--2--2--2--2--2--2--2--2--2--2--2--2--2--2--2--2--2--2-------|
A|---2--2--2--2--2--2--2--2--2--2--2--2--0--0--0--0--0--0--0--0--0--0-------|
E|---x-x--x--x--x--x--x--x--x--x--x--x--x--x--x--x--x---x--x---x--x--x---x--|

Chorus 3:

       D                                                       Em
       V  V   U  U  V  U  V  V  U  U  V   U  V  V  U  U  V  U  V   V  U  U  V   U
e|---2--2--2--2--2--2--2--2--2--2--2--2--0--0--0--0--0--0--0--0--0--0--0--0-------|
B|---3--3--3--3--3--3--3--3--3--3--3--3--0--0--0--0--0--0--0--0--0--0--0--0-------|
G|---2--2--2--2--2--2--2--2--2--2--2--2--0--0--0--0--0--0--0--0--0--0--0--0-------|
D|---0--0--0--0--0--0--0--0--0--0--0--0--2--2--2--2--2--2--2--2--2--2--2--2-------|
A|---0--0--0--0--0--0--0--0--0--0--0--0--2--2--2--2--2--2--2--2--2--2--2--2-------|
E|---x--x--x--x--x---x--x---x--x--x--x--x--x--x---x--x---x--x--x--x---x--x--x--x--|

       Bm                                                     A
       V  V  U  U  V  U  V  V   U   U  V  U  V  V   U  U  V  U  V  V  U  U   V  U
e|---2--2--2--2--2--2--2--2--2--2--2--2--0--0--0--0--0--0--0--0--0--0--0--0-------|
B|---3--3--3--3--3--3--3--3--3--3--3--3--2--2--2--2--2--2--2--2--2--2--2--2-------|
G|---4--4--4--4--4--4--4--4--4--4--4--4--2--2--2--2--2--2--2--2--2--2--2--2-------|
D|---4--4--4--4--4--4--4--4--4--4--4--4--2--2--2--2--2--2--2--2--2--2--2--2-------|
A|---2--2--2--2--2--2--2--2--2--2--2--2--0--0--0--0--0--0--0--0--0--0--0--0-------|
E|--x--x--x--x--x--x--x--x--x--x--x--x--x---x--x--x--x--x---x--x--x--x---x--x--x--|

      Gmaj                                                  Em
       V  V  U  U  V   U  V  V  U  U  V  U  V   V  U  U  V   U  V  V   U  U  V  U
e|---2--2--2--2--2--2--2--2--2--2--2--2--0--0--0--0--0--0--0--0--0--0--0--0----|
B|---2--2--2--2--2--2--2--2--2--2--2--2--0--0--0--0--0--0--0--0--0--0--0--0----|
G|---0--0--0--0--0--0--0--0--0--0--0--0--0--0--0--0--0--0--0--0--0--0--0--0----|
D|---0--0--0--0--0--0--0--0--0--0--0--0--2--2--2--2--2--2--2--2--2--2--2--2----|
A|---2--2--2--2--2--2--2--2--2--2--2--2--2--2--2--2--2--2--2--2--2--2--2--2----|
E|---3--3--3--3--3--3--3--3--3--3--3--3--x--x--x--x---x--x--x--x--x---x--x--x--|

       A                         Asus4     A             D
       V  V  U  U  V  U  V   V  U   V  V  U   V  V   U  U  V  U  V  V  U  U   V  U
  e|--0--0--0--0--0--0--0--0--0--0--0--0--0--0--0--0--0--0--0--0--0--0--0--0-------|
B|---2--2--2--2--2--2--3--3--3--2--2--2--2--2--2--2--2--2--2--2--2--2--2--2--------|
G|---2--2--2--2--2--2--2--2--2--2--2--2--3--3--3--3--3--3--3--3--3--3--3--3--------|
D|---2--2--2--2--2--2--2--2--2--2--2--2--2--2--2--2--2--2--2--2--2--2--2--2--------|
A|---0--0--0--0--0--0--0--0--0--0--0--0--0--0--0--0--0--0--0--0--0--0--0--0--------|
E|---x--x--x--x---x--x--x--x---x--x--x--x---x--x--x--x---x--x--x---x--x--x--x---x--|

      Em                                                       A                        Asus4  A
       V  V  U  U  V   U  V  V  U  U  V   U  V  V   U  U  V  U  V  V  U  V
e|---0--0--0--0--0--0--0--0--0--0--0--0--0--0--0--0--0--0--0--0--0--0-------|
B|---0--0--0--0--0--0--0--0--0--0--0--0--2--2--2--2--2--2--3--3--3--2-------|
G|---0--0--0--0--0--0--0--0--0--0--0--0--2--2--2--2--2--2--2--2--2--2-------|
D|---2--2--2--2--2--2--2--2--2--2--2--2--2--2--2--2--2--2--2--2--2--2-------|
A|---2--2--2--2--2--2--2--2--2--2--2--2--0--0--0--0--0--0--0--0--0--0-------|
E|---x-x--x--x--x--x--x--x--x--x--x--x--x--x--x--x--x---x--x---x--x--x---x--|

Outro:

        Bm                                       G
e|-----------------2---------------------------------2-----------------------------|
B|----------3---------3-----3---------------2--------------------------------------|
G|-------------4---------4----------------------0----------------------------------|
D|------4--------------------------------------------------------------------------|
A|---2------------------------------------2----------------------------------------|
E|-------------------------------------3-------------------------------------------|

    Bm                                           A
e|-----------------2--------------------------------0------------------------------|
B|----------3---------3-----3--------------2---------------------------------------|
G|-------------4---------4---------------------2-----------------------------------|
D|------4--------------------------------2-----------------------------------------|
A|---2--------------------------------0--------------------------------------------|
E|---------------------------------------------------------------------------------|

End



************************************

| /   slide up
| \   slide down
| h   hammer-on
| p   pull-off
| ~   vibrato
| +   harmonic
| x   Mute note
| b   Bend
| pb  Pre-bend
| br  Bend release
| pbr Pre-bend release
| brb Bend release bend
************************************





Comments


Popular George Straight tabs & chords
Give It Away Chords
Living For The Night Chords
One Night At A Time Chords
Write This Down Chords
Amarillo By Morning Tabs
Give It Away Ukulele
Living For The Night Ukulele
One Night At A Time Ukulele
The Breath You Take Ukulele
Write This Down Ukulele


Song lyrics



↑ Back to top | Tablatures and chords are parodies/interpretations of the original songs. You may use it for private study, scholarship, research or language learning purposes only
© 2014 AZChords.com Contact us | Privacy policy | DMCA | Add/correct tabs | Request tabs | Top 50 tabs