» » »

Faith Tabs (ver.3)

Artists:  A B C D E F G H I J K L M N O P Q R S T U V W X Y Z # 

Faith Tabs (ver.3)

George Michael
Rating:
0/5 (0 votes)

Hard to play? Try these video lessons and learn fast.
                George Michael - Faith


Intro

e-------------------|
b-------------------|
g---5----5---55-----|
d---5----5---55-----|
a---3----3---33-----|
E-------------------| x4
Verse

e---------------------------------------------------------------|
b---------------------------------------------------------------|
g---5----5---55--5----5---55---------------5----5---55----------|
d---5----5---55--5----5---55--3----3---33--5----5---55----------|
a---3----3---33--3----3---33--3----3---33--3----3---33----------|
E-----------------------------1----1---11-----------------------|
Well I guess it would be nice....

e---------------------------------------------------------------|
b---------------------------------------------------------------|
g---5----5----55--5----5---55----------------5----5----55-------|
d---5----5----55--5----5---55--3----3----33--5----5----55-------|
a---3----3----33--3----3---33--3----3----33--3----3----33-------|
E------------------------------1----1----11---------------------|
But i gotta think twice...

Bridge
e----------------------------------------------------------------|
b----------------------------------------------------------------|
g----------------5----5---55---------------5----5---55-----------|
d-- 3----3---33--5----5---55--3----3---33--5----5---55-----------|
a---3----3---33--3----3---33--3----3---33--3----3---33-----------|
E---1----1---11---------------1----1---11------------------------|
Oh, but I need some...

e---------------------------------------------------------------|
b---------------------------------------------------------------|
g----------------5----------------------------------------------|
d-- 3----3---33--5----7---77------------------------------------|
a---3----3---33--3----7---77------------------------------------|
E---1----1---11-------5---55------------------------------------|
Oh, and when that love come down without de  -  votion

e---------------------------------------------------------------|
b---------------------------------------------------------------|
g---7----7---77-------------------------------------------------|
d---7----7---77--5-5-5------------------------------------------|
a---5----5---55--5-5-5------------------------------------------|
E----------------3-3-3------------------------------------------|
Well, it takes a strong man, baby, but I'm showin you the door

Chorus
e---------------------------------------------------------------|
b---------------------------------------------------------------|
g---5----5---55--5----5---55--5----5---55--5-5-5----------------|
d---5----5---55--5----5---55--5----5---55--5-5-5----------------|
a---3----3---33--3----3---33--3----3---33--3-3-3----------------|
E---------------------------------------------------------------|
'Cause I gotta have faith...           ...Faith, Faith, Faith

Solo
e---------------------------------------------------------------|
b------8--------6--------7--------4--------5--------4-----------|
g--------9--------7--------8--------5---------6-------5---------|
d----9--------7--------8--------5--------6--------5-------------|
a--7--------5--------6--------3--------4--------3---------------|
E---------------------------------------------------------------|


[order]
Intro
Verse
Bridge
Chorus
Verse
Bridge
Chorus
Solo
Bridge
Chorus
            
Hard to play? Try these video lessons and learn fast. | Correct




comments powered by Disqus
↑ Back to top | Tablatures and chords are parodies/interpretations of the original songs. You may use it for private study, scholarship, research or language learning purposes only