» » »

George Jones, Walk Through This World With Me Tabs (ver.2)

Artists:  A B C D E F G H I J K L M N O P Q R S T U V W X Y Z # 

Walk Through This World With Me Tabs (ver.2)

George Jones Tabs
Rating:
0/5 (0 votes)
Walk Through This World With Me  lessons Tabs too difficult? Try these video lessons and learn fast
                (1)
Walk Through This World With Me: Intro and Solo

Intro:
e-----------------------------------------------
b-12-10-12-12^(13)^(12)-10---8-7-----7-8-8/10/8-
g--------------------------------7-9------------
a-----------------------------------------------
a-----------------------------------------------
e-----------------------------------------------

Solo:
e-----------------------------------------------------
b-12-12-12-10-12-12^(13)^(12)-10---8-7-----7-8-8/10/8-
g--------------------------------------7-9------------
d-----------------------------------------------------
a-----------------------------------------------------
e-----------------------------------------------------

e-7-8-7--------------
b-------10-8-7---7-8-
g--------------9-----
d--------------------
a--------------------
e--------------------
            

comments powered by Disqus
↑ Back to top | George Jones Tabs for Walk Through This World With Me. Lyrics for acoustic guitar and electric guitar. Tablatures and chords are parodies/interpretations of the original songs. You may use it for private study, scholarship, research or language learning purposes only