» » »

George Jones, Beer Run Tabs (ver.1)

Artists:  A B C D E F G H I J K L M N O P Q R S T U V W X Y Z # 

Beer Run Tabs (ver.1)

George Jones Tabs
 Rating:
4/5 (4 votes)
Beer Run lessons Tabs too difficult? Try these video lessons and learn fast
1
                INTRO, OUTRO AND SOLO BACKUP: bass and guitar doubled
 
|------------------------|------------------------|------------------------|
|------------------------|------------------------|------------------------|
|------------------------|------------------------|------------------------|
|-----------0--3--3--2--0|------------------------|-----------0--3--3--2--0|
|--------2---------------|--------1--2--3--3--1--2|--------2---------------|
|--3--3------------------|--3--3------------------|--3--3------------------|




|------------------------|------------------------|------------------------|
|------------------------|------------------------|------------------------|
|------------------------|------------------------|------------------------|
|-----0-----0-----0-----0|-----------0--3--3--2--0|------------------------|
|-/5-----5-----5-----5---|--------2---------------|--------1--2--3--3--1--2|
|-S----------------------|--3--3------------------|--3--3------------------|



 
|------------------------|------------------------|------------------------|
|------------------------|------------------------|------------------------|
|------------------------|------------------------|------------------------|
|------------------------|------------------------|------------------------|
|-----2--3--4--5---------|------------------------|------------------------|
|--3--------------0--1--2|--3--3--3--2--3--3--3--3|------------------------|



VERSE 1: riff over A major


|--------5--------7------|--9---------------------|------------------------|
|------------------------|------------------------|------------------------|
|--5--6-----6--7-----7--9|------------------------|------------------------|
|----H--------S--------S-|------------------------|------------------------|
|------------------------|------------------------|------------------------|
|------------------------|------------------------|------------------------|



VERSE 2 TO BRIDGE: lead guitar
                                  
|------------------------|------------------------|------------------------|
|------------------------|-----------5-(6)(6)-5---|------------------------|
|------------------------|-----------5-(7)(7)-5---|--3---------------------|
|------------------------|------------B------R---5|-----5------------------|
|------------------------|------------------------|------------------------|
|------------------------|------------------------|------------------------|



  
|------------------------|------------------------|------------------------|
|------------------------|------------------------|------------------------|
|------------------------|--------0---------------|------------------------|
|--------3-----3-----3---|--3--5------------------|------------------------|
|-----5-----5-----5-----5|----S-------------------|--------------1-----1---|
|------------------------|------------------------|---------------B-----B--|




|------------------------|------------------------|------------------------|
|------------------------|------------------------|------------------------|
|------------------------|------------------------|------------------------|
|------------------------|------------------------|------------------------|
|------------------------|--------------------1--2|--3-----3-----2-----2---|
|--3---------------------|-----------------3------|------------------------|



|------------------------|--------5--------7------|--9-----9---------------|
|------------------------|------------------------|------------------------|
|------------------------|--5--6-----6--7-----7--9|-----9------------------|
|------------------------|----S--------S--------S-|------------------------|
|-1------------1---------|------------------------|------------------------|
|------------------------|------------------------|------------------------|



|--3---------------------|------------------------|------------------------|
|--3---------------------|--3-----------3---------|------------------------|
|--0---------------------|--2-----------2---------|------------------------|
|--0---------------------|--0-----------0---------|------------------------|
|--2---------------------|------------------------|------------------------|
|--3---------------------|------------------------|--3--------3--------3---|




|------------------------|------------------------|------------------------|
|------------------------|------------------------|------------------------|
|------------------------|------------------------|------------------------|
|------------------------|------------------------|------------------------|
|--------------------0--1|--2---------------------|------------------------|
|-----3--------3--3------|------------------------|------------------------|




VERSE 3: riff over A major
  

|--------5--------7------|--8--------9------------|------------------------|
|------------------------|------------------------|------------------------|
|--5--6-----6--7-----7--8|-----8--9---------------|------------------------|
|----H--------S--------S-|-------S----------------|------------------------|
|------------------------|------------------------|------------------------|
|------------------------|------------------------|------------------------|
            
Submit corrections

comments powered by Disqus
↑ Back to top | George Jones Tabs for Beer Run. Lyrics for acoustic guitar and electric guitar. 1 Tablatures and chords are parodies/interpretations of the original songs. You may use it for private study, scholarship, research or language learning purposes only