>
 >
You

You Bass Tabs

George Harrison - You chords, tabs, tablatures, lyrics

Guitar lessons | Add/correct | Request | Top 50 tabs Artists:  A B C D E F G H I J K L M N O P Q R S T U V W X Y Z 0-9

You Bass Tabs – George Harrison

CD, Sheet music, Poster

Do you like You? Share with your friends now
Bass TabsChordsChords v2Ukulele
  ----------------------------------------------------------------

   GEORGE HARRISON  YOU (Harrison) From EXTRA TEXTURE. Released
                     on 1975.

  ----------------------------------------------------------------







     INTRO
     00:04

  G|---------------------------------|---------------------------------|
  D|-------------------------4---3---|---------------------------------|
  A|---------------------4-----------|-4-------------------------------|
  E|-2-------------------------------|-----6---------------6---7---6---|





  G|---------------------------------|---------------------------------|
  D|-------------------------8---6---|---------------------------------|
  A|---------------------9-----------|-8-------------------4---2-------|
  E|-7-------------------------------|-----9-----------------------4---|





  G|---------------------------------|---------------------------------|
  D|-------------------------4---3---|---------------------------------|
  A|---------------------4-----------|-4-------------------------------|
  E|-2-------2-----------------------|-----6-----------6-------7---6---|





  G|---------------------------------|---------------------------------|
  D|-------------------------8---6---|---------------------------------|
  A|---------------------9-----------|-8-------------------------------|
  E|-7-------------------------------|-----9-----------9-------7-------|





     VERSE
     00:18

  G|---------------------------------|---------------------------------|
  D|-------------------------4---3---|---------------------------------|
  A|---------------------4-----------|-4-------------------------------|
  E|-2-------------------------------|-----6-----------6-------7---6---|
     I,                                                            I




  G|---------------------------------|---------------------------------|
  D|-------------------------8---6---|---------------------------------|
  A|---------------------9-----------|-8-----------4---2---------------|
  E|-7-------------------------------|-----9-------------------4-------|





  G|---------------------------------|---------------------------------|
  D|-------------------------4---3---|---------------------------------|
  A|---------------------4-----------|-4-------------------------------|
  E|-2-------------------------------|-----6-----------7---6---7---6---|
     love                                                          I




  G|---------------------------------|---------------------------------|
  D|-------------------------8---6---|---------------------------------|
  A|---------------------9-----------|-8-------------------------------|
  E|-7---------------7---------------|-----9-------7---9---7---9---7---|
     love                                                          and




  G|---------------------------------|---------------------------------|
  D|---------------------------------|---------------------------------|
  A|---------------------------------|---------------------------------|
  E|-9---9-------9---9---9---9---9---|-9---9-------9---9---9-------9---|
     I,                          and   I,                          I




  G|---------------------------------|---------------------------------|
  D|---------------------------------|---------------------------------|
  A|---------------------------------|---------------------------------|
  E|-9---9-------9---9---9---9---9---|-9---9---9---9---9---9---7---4---|
     looooooooooooooooooooooooooooooooooooooooove




     CHORUS
     00:39

  G|---------------------------------|---------------------------------|
  D|-------------------------4---3---|---------------------------------|
  A|---------------------4-----------|-4-------------------------------|
  E|-2-----------2-------------------|-----6-----------7---6---7---6---|
     you                                                       oh  you




  G|---------------------------------|---------------------------------|
  D|-------------------------8---6---|---------------------------------|
  A|---------------------9-----------|-8-----------4---2---------------|
  E|-7-----------7-------------------|-----9-------------------4-------|





  G|---------------------------------|---------------------------------|
  D|-------------------------4---3---|---------------------------------|
  A|---------------------4-----------|-4-------------------------------|
  E|-2-------------------------------|-----6---------------6---7---6---|
     you                                                       yeah
                                                                   you




  G|---------------------------------|---------------------------------|
  D|-------------------------8---6---|---------------------------------|
  A|---------------------9-----------|-8-----------4---2---------------|
  E|-7---------------7---------------|-----9-------------------4-------|
                                                                   Ah




     VERSE
     00:53

  G|---------------------------------|---------------------------------|
  D|-------------------------4---3---|---------------------------------|
  A|---------------------4-----------|-4-------------------------------|
  E|-2---------------2---------------|-----6-----------7---6---7---6---|
     you,                                                          you




  G|---------------------------------|---------------------------------|
  D|-------------------------8---6---|---------------------------------|
  A|---------------------9-----------|-8-------------------------------|
  E|-7---------------7---------------|-----9-------9---7-------4-------|





  G|---------------------------------|---------------------------------|
  D|-------------------------4---3---|---------------------------------|
  A|---------------------4-----------|-4-------------------------------|
  E|-2-------------------------------|-----6-------6---7---6---7---6---|
     love,                                                         love




  G|---------------------------------|---------------------------------|
  D|-------------------------8---6---|---------------------------------|
  A|---------------------9-----------|-8-------------------------------|
  E|-7---------------7---------------|-----9-------7---9-------7-------|
                                                                   and




  G|---------------------------------|---------------------------------|
  D|---------------------------------|---------------------------------|
  A|-------------------------8---11--|-------------------------8---11--|
  E|-9---9-------9---9---9-----------|-9---9-------9---9---9-----------|
     you,                        yes   you,                        you




  G|---------------------------------|---------------------------------|
  D|---------------------------------|---------------------------------|
  A|-------------------------8---11--|---------------------------------|
  E|-9---9-------9---9---9-----------|-9---9---9---9---9---9---7---4---|
     looooooooooooooooooooooooooooooooooooooooove




     CHORUS
     01:15

  G|---------------------------------|---------------------------------|
  D|-------------------------4---3---|---------------------------------|
  A|---------------------4-----------|-4-------------------------------|
  E|-2-------------------------------|-----6-----------7---6---7---6---|
     me,                                                       yeah
                                                                   you




  G|---------------------------------|---------------------------------|
  D|-------------------------8---6---|---------------------------------|
  A|---------------------9-----------|-8-------------------------------|
  E|-7-------------------------------|-----9-----------7-------4-------|





  G|---------------------------------|---------------------------------|
  D|-------------------------4---3---|---------------------------------|
  A|---------------------4-----------|-4-------------------------------|
  E|-2---------------2---------------|-----6-----------7---6---7---6---|
     you                                                       yeah
                                                                   you




  G|---------------------------------|---------------------------------|
  D|-------------------------8---6---|---------------------------------|
  A|---------------------9-----------|-8-----------6---7-----------6---|
  E|-7-----------7-------------------|-----9---------------9---9-------|





     BRIDGE
     01:28

  G|---------------------------------|---------------------------------|
  D|---------------------------------|---------------------------------|
  A|-7---------------7---6-----------|---------------------------------|
  E|-------------------------9---7---|---------7-------7-------7---4---|
                 And when    holdin'   you                     what
                         I'm                                       a




  G|---------------------------------|---------------------------------|
  D|---------------------------------|---------------------------------|
  A|---------------------------------|---------------------------------|
  E|-6-------6---6---6---6---6---6---|-6---6---6---6---6---6---6---6---|
     feeling




  G|---------------------------------|---------------------------------|
  D|---------------------------------|---------------------------------|
  A|-7-------7-------7---6-----------|---------------------------------|
  E|-------------------------9---7---|---------7-------7---7---7---4---|
                     Seems       good          to  be  true    that
                         so                                        I'm




  G|---------------------------------|---------------------------------|
  D|---------------------------------|---------------------------------|
  A|---------------------------------|-------------6-------4---2-------|
  E|-6-------6---6---6---6---6---5---|-4---------------------------4---|
     tellin' you all         that      must    be      dreamin'
                                 I




     SAX SOLO
     01:42

  G|---------------------------------|---------------------------------|
  D|-------------------------4---3---|---------------------------------|
  A|---------------------4-----------|-4-------------------------------|
  E|-2-------------------------------|-----6---------------6---7---6---|





  G|---------------------------------|---------------------------------|
  D|-------------------------8---6---|---------------------------------|
  A|---------------------9-----------|-8-------------------------------|
  E|-7-------------------------------|-----9-------9---7-------4-------|





  G|---------------------------------|---------------------------------|
  D|-------------------------4---3---|---------------------------------|
  A|---------------------4-----------|-4-------------------------------|
  E|-2---------------2---------------|-----6---------------6---7---6---|





  G|---------------------------------|---------------------------------|
  D|-------------------------8---6---|---------------------------------|
  A|---------------------9-----------|-8-----------------------8---11--|
  E|-7-----------7-------------------|-----9-------9-------9-----------|
                                                                   And




  G|---------------------------------|---------------------------------|
  D|---------------------------------|---------------------------------|
  A|-------------------------8---11--|-------------------------8---11--|
  E|-9---9-------9---9---9-----------|-9---9-------9---9---9-----------|
     I,                          and   I,                          I




  G|---------------------------------|---------------------------------|
  D|---------------------------------|---------------------------------|
  A|-------------------------8---11--|---------------------------------|
  E|-9---9-------9---9---9-----------|-9---9---9---9---9---9---7---4---|
     looooooooooooooooooooooooooooooooooooooooove




     CHORUS
     02:03

  G|---------------------------------|---------------------------------|
  D|-------------------------4---3---|---------------------------------|
  A|---------------------4-----------|-4-------------------------------|
  E|-2---------------2---------------|-----6-----------7---6---7---6---|
     you                                                       oh




  G|---------------------------------|---------------------------------|
  D|-------------------------8---6---|---------------------------------|
  A|---------------------9-----------|-8-------------------------------|
  E|-7-------------------------------|-----9-------9---7-------4-------|
     you                                               oh      ho




  G|---------------------------------|---------------------------------|
  D|-------------------------4---3---|---------------------------------|
  A|---------------------4-----------|-4-------------------------------|
  E|-2-------------------------------|-----6---------------6---7---6---|
     you                                               yeah        you




  G|---------------------------------|---------------------------------|
  D|-------------------------8---6---|---------------------------------|
  A|---------------------9-----------|-8-------------------------------|
  E|-7-----------7-------------------|-----9-----------7-------4-------|





     INTERLUDE
     02:18

  G|---------------------------------|---------------------------------|
  D|-----------------------------4---|---------------------------------|
  A|---------------------4---6-------|-----------------6---4-----------|
  E|-2---------------6---------------|-------------------------6---2---|





  G|---------------------------------|---------------------------------|
  D|-----------------------------4---|---------------------------------|
  A|---------------------4---6-------|-----------------6---4-----------|
  E|-----------------6---------------|-------------------------6-------|





     BRIDGE
     02:25

  G|---------------------------------|---------------------------------|
  D|---------------------------------|---------------------------------|
  A|-7-------7-------7---6-----------|---------------------------------|
  E|-------------------------9---7---|---------7-------7---7-------4---|
                 And when    holdin'   you                     what
                         I'm                                       a




  G|---------------------------------|---------------------------------|
  D|---------------------------------|---------------------------------|
  A|---------------------------------|-----------------------------4---|
  E|-6---6---6---6---6---6---6---6---|-6---6---6---6---6---6---6-------|
     feeling




  G|---------------------------------|---------------------------------|
  D|---------------------------------|---------------------------------|
  A|-7---------------7---6-----------|---------------------------------|
  E|-------------------------9---7---|---------7-------7---7-------4---|
                     Seems       good          to  be  true    that
                         so                                        I'm




  G|---------------------------------|---------------------------------|
  D|---------------------------------|---------------------------------|
  A|---------------------------------|-------------6-------4-----------|
  E|-6-------6---6---6---6---6---6---|-4---------------------------4---|
     tellin' you all         I         must    be      dreamin'    I




     VERSE
     02:39

  G|---------------------------------|---------------------------------|
  D|-------------------------4---3---|---------------------------------|
  A|---------------------4-----------|-4-------------------------------|
  E|-2-------------------------------|-----6-------6---7---6---7---6---|
                                                               oh  I




  G|---------------------------------|---------------------------------|
  D|-------------------------8---6---|---------------------------------|
  A|---------------------9-----------|-8-------------------------------|
  E|-7-----------7-------------------|-----9-------9---7-------4-------|
                                                                   I




  G|---------------------------------|---------------------------------|
  D|-------------------------4---3---|---------------------------------|
  A|---------------------4-----------|-4-------------------------------|
  E|-2---------------2---------------|-----6-------------------7---6---|
     love




  G|---------------------------------|---------------------------------|
  D|-------------------------8---6---|---------------------------------|
  A|---------------------9-----------|-8-------------------------------|
  E|-7-------------------------------|-----9-------9---7-------9-------|
     love                                                      and




  G|---------------------------------|---------------------------------|
  D|---------------------------------|---------------------------------|
  A|---------------------------------|---------------------------------|
  E|-4-------9---9---9---9---9---9---|-9---9---9---9---9---9---9---9---|
     I,                      and       I,                      I




  G|---------------------------------|---------------------------------|
  D|---------------------------------|---------------------------------|
  A|---------------------------------|---------------------------------|
  E|-9---9---9---9---9---9---9---9---|-9---9---9---9---9---9---7---4---|
     looooooooooooooooooooooooooooooooooooooooove




     CHORUS
     03:00

  G|---------------------------------|---------------------------------|
  D|-------------------------4---3---|---------------------------------|
  A|---------------------4-----------|-4-------------------------------|
  E|-2-------------------------------|-----6---------------6---7---6---|
     you                                                       oh




  G|---------------------------------|---------------------------------|
  D|-------------------------8---6---|---------------------------------|
  A|---------------------9-----------|-8-------------------------------|
  E|-7---------------7---------------|-----9-------9---7-------4-------|
     you




  G|---------------------------------|---------------------------------|
  D|-------------------------4---3---|---------------------------------|
  A|---------------------4-----------|-4-------------------------------|
  E|-2---------------2---------------|-----6---------------6---7---6---|
     you                                                       oh




  G|---------------------------------|---------------------------------|
  D|-------------------------8---6---|---------------------------------|
  A|---------------------9-----------|-8-------------------------------|
  E|-7-------------------------------|-----9-------9---7-------4-------|
     you




  G|---------------------------------|---------------------------------|
  D|-------------------------4---3---|---------------------------------|
  A|---------------------4-----------|-4-------------------------------|
  E|-2-------------------------------|-----6---------------6---7---6---|
     you                                               oh,     oh,




  G|---------------------------------|---------------------------------|
  D|-------------------------8---6---|---------------------------------|
  A|---------------------9-----------|-8-------------------------------|
  E|-7-------------------------------|-----9-------9---7-------4-------| ....
     oh





Comments


Popular George Harrison tabs & chords
Behind That Locked Door Chords
Ding Dong, Ding Dong Chords
The Hottest Gong In Town Chords
True Love 1 Chords
Give Me Love Tabs
Id Have You Anytime 1 Tabs
Ballad Of Sir Frankie Crisp Let It Roll Ukulele
Dream Away Ukulele
Let It Roll Ukulele
Lord Loves The One Ukulele


Song lyrics



↑ Back to top | Tablatures and chords are parodies/interpretations of the original songs. You may use it for private study, scholarship, research or language learning purposes only
© 2014 AZChords.com Contact us | Privacy policy | DMCA | Add/correct tabs | Request tabs | Top 50 tabs