>
 >
Wah Wah

Wah Wah Bass Tabs

George Harrison - Wah Wah chords, tabs, tablatures, lyrics

Guitar lessons | Add/correct | Request | Top 50 tabs Artists:  A B C D E F G H I J K L M N O P Q R S T U V W X Y Z 0-9

Wah Wah Bass Tabs – George Harrison

CD, Sheet music, Poster

Do you like Wah Wah? Share with your friends now
Bass Tabs
WAH WAH

George Harrison

INTRO
  t=89
G|---------------------------------|---------------------------------|
D|---------------------------------|---------------------------------|
A|---------------------------------|---------------------------------|
E|---------------------------------|---------------------------------|

G|---------------------------------|---------------------------------|
D|---------------------------------|---------------------------------|
A|/7-------------------------------|---------------------------------|
E|-----------------------------7---|-0---------------------------7---|

VERSE

G|---------------------------------|---------------------------------|
D|---------------------------------|---------------------------------|
A|-7---------------7---------------|-7-------------------------------|
E|---------------7-----------------|-----------------4-----------4---|

G|---------------------------------|---------------------------------|
D|---------------------------------|---------------------------------|
A|---------------------------------|---------------------------------|
E|-2-----------2---2---------------|---------2-----------------------|

G|---------------------------------|---------------------------------|
D|---------------------------------|---------------------------------|
A|-2-/-4-----------4---------------|-2---------------2-----------4---|
E|---------2---------------2-------|---------------------------------|

G|---------------------------------|-----------------4---------------|
D|---------------------------------|-------------4-------------------|
A|-------------------------4-------|-2---------------------------2---|
E|-2-----------2---2---------------|---------------------------------|

G|---------------------------------|---------------------------------|
D|---------------------------------|---------------------------------|
A|-5---------------5-----5---------|-5---------------------------7---|
E|-------------------------5-------|---------------------------------|

G|-------------7-------------------|---------------------------------|
D|---------------------------------|---------------------------------|
A|-5---------------------------7---|-5---------------------------6---|
E|---------------------------------|---------------------------------|

INTERLUDE

G|---------------------------------|---------------------------------|
D|---------------------------------|---------------------------------|
A|-7-----------------------7---7---|---------------------------------|
E|---------------------------9-----|-0---------------------------7---|

G|---------------------------------|---------------------------------|
D|---------------------------------|---------------------------------|
A|-7-------------------7-------7---|---------------------------------|
E|-------------------------7-9-----|-0---------------------------7---|

VERSE

G|---------------------------------|---------------------------------|
D|---------------------------------|---------------------------------|
A|-7---------------7---7-----------|---------7-----------------------|
E|---------------7-------------7---|-0---------------4-------3-------|

G|---------------------------------|---------------------------------|
D|-------------------------4-------|---------------------------------|
A|---------------------4-----------|---------------------------------|
E|-2-------2-----------------------|-2-----------2-------2-------5---|

G|---------------------------------|---------------------------------|
D|---------------------------------|--------------------/9-----------|
A|-5-------------------------------|-----------------------------9---|
E|---------5---2-----------5---2---|--/7-----7-----------------------|

G|---------------------------------|---------------------------------|
D|---------------------------------|---------------------------------|
A|----------------/4---------------|-2---------------2-----------4---|
E|-2---------------------------2---|---------------------------------|

G|---------------------------------|-----------------7---------------|
D|---------------------------------|---------------------------------|
A|-5---------------5-----5---------|-5-------------------------------|
E|-------------------------5-------|---------------------------------|

G|---------------------------------|---------------------------------|
D|---------------------------------|---------------------------------|
A|-5-------------------------------|-5-----------------------5---6---|
E|-------------------------5-------|---------------------------------|

INTERLUDE

G|---------------------------------|---------------------------------|
D|---------------------------------|---------------------------------|
A|-7-------------------7---7---7---|---------------------------------|
E|---------------------------9-----|-0-------------------------------|

G|---------------------------------|---------------------------------|
D|---------------------------------|---------------------------------|
A|/7-------------------7---7---7---|---------------------------------|
E|---------------------------9-----|-0---------------------------7---|

BRIDGE

G|---------------------------------|-----------------|
D|---------------------------------|-----------------|
A|-7-------------------------------|-----------------|
E|---------5---5-------5---0---0---|-5-----5-5-------|

G|---------------------------------|---------------------------------|
D|---------------------------------|---------------------------------|
A|---7-----------------7---------5-|-7-------7-------7-7---------7---|
E|-------------------------7-9-----|-----------------------7---------|

G|---------------------------------|-----------------|
D|---------------------------------|-----------------|
A|---------------------------------|-----------------|
E|-5-------5---5-------5---0---0---|-5-----5-5-----7-|

G|---------------------------------|---------------------------------|
D|---------------------------------|---------------------------------|
A|-7---------------7---------------|-7-------------------------------|
E|---------------7---------7-5---7-|-------------7---7-----7-7---7---|

G|---------------------------------|
D|-----------------9---------------|
A|-------------9-------------------|
E|-7-------------------------------|

G|---------------------------------|-----------------|
D|---------------------------------|-----------------|
A|---------------------------------|-----------------|
E|-5---5---5---5-------5-----0-5---|-5-----5---7-9---|

G|---------------------------------|---------------------------------|
D|---------------------------------|---------------------------------|
A|-7-------7-------------------4---|-7---------------7-------7---7---|
E|---------------------7---5-7-----|---------------7-----------------|

G|---------------------------------|-----------------|
D|---------------------------7-----|-----------------|
A|-----------------------7---------|-----------------|
E|-5-------5-------5---------------|-5-------5---5---|

G|---------------------------------|---------------------------------|
D|---------------------------------|---------------------------------|
A|-7-------7-------7-----------4---|-7-------2-------------2---------|
E|---------------7---------5-7-----|-------------------------2-------|

G|---------------------------------|
D|---------------------------------|
A|-2---------------2---------------|
E|---------------------------------|

VERSE

G|---------------------------------|---------------------------------|
D|---------------------------------|---------------------------------|
A|-----------------7---------------|-7---------------7---------------|
E|-0---------7-9-----------------7-|---------------7-----4-------4---|

G|---------------------------------|---------------------------------|
D|-----------------4---------------|---------------------------------|
A|-------------4-------------------|---------------------------------|
E|-2-------------------------------|---------2-------5-------2-------|

G|---------------------------------|---------------------------------|
D|------------4--------------------|---------------------------------|
A|-----------------2---------4-----|/9-------9-----------------------|
E|---------2-----2-----------------|---------------------2---2-------|

G|---------------------------------|-----------------|
D|---------------------------------|-----------------|
A|-------------4-------------------|-----------4-----|
E|-----2---5-------7-------7-------|------7----------|

G|---------------------------------|------------/7-------7-----------|
D|---------------------------------|-----------------------------7---|
A|-5-----------5-------------------|-5-------------------------------|
E|---------------------------------|---------------------------------|

G|----------------------------/9---|-7-------------------7-------9\--|
D|---------------------------------|---------------------------------|
A|-5---------------5---------------|---------------------------------|
E|---------------------------------|---------------------------------|

INTERLUDE

G|---------------------------------|---------------------------------|
D|---------------------------------|---------------------------------|
A|-7-------7-----------7-------7---|---------7-------7-----7-----7---|
E|-------------------------7-9-----|-0-------------7---------7-9-----|

G|---------------------------------|---------------------------------|
D|---------------------------------|---------------------------------|
A|---------7-------7-----7-----7---|---------7-------7-----7-----7---|
E|-0-------------7---------7-9-----|-0-------------7---------7-9-----|

BRIDGE

G|---------------------------------|-----------------|
D|---------------------------------|---------7-------|
A|---------------------------------|-----------------|
E|-5-----0-5-------5-----0-5---5---|-------5---------|

G|---------------------------------|---------------------------------|
D|---------------------------------|---------------------------2-4---|
A|---7---7---------7-------7-------|-7---------7-------7---7---------|
E|---------------7-----------7-9---|-----0-----------7---------------|

G|---------------------------------|-----------------|
D|---------7-----------------------|-----------------|
A|-------7-------------------------|-----------------|
E|-5---------------5-------5-------|-0-------5-------|

G|---------------------------------|---------------------------------|
D|---------------------------------|---------------------------------|
A|-7-------7-----------7-------7---|-7-------7-------7---7-------7---|
E|-------------------------7-9-----|---------------7-----------------|

G|---------------------------------|-----------------|
D|-------------------------7-------|-----------------|
A|---------------------7-------7---|-----------------|
E|-5-------5---5-------------------|-5-------5---7---|

G|---------------------------------|---------------------------------|
D|---------------------------------|---------------------------------|
A|-7-------------------7-------7---|-7-------------------------------|
E|-------------------------7-9-----|---------7-----2-7-------7-------|

G|---------------------------------|
D|---------------------------------|
A|---------------------------------|
E|-7-------7-------7-------7-------|

VERSE

G|---------------------------------|---------------------------------|
D|/9-------------------------------|---------------------------------|
A|-----------------7---------------|-7-----------7-------------------|
E|-----------------------------7---|-----------------4-----------4---|

G|---------------------------------|---------------------------------|
D|---------------------------------|-4-----------------------4-------|
A|----------------------------4----|---------------------4-------4---|
E|-2-----------2---2---------------|---------------------------------|

G|---------------------------------|---------------------------------|
D|---------------------------------|---------------------------------|
A|-----------------------------2---|-2---------------2------/4-------|
E|-2-------2---------------2-------|-------------2-------------------|

G|---------------------------------|---------------------------------|
D|---------------------------------|-----------------2/4-4---7---9---|
A|-----------------2-------4-------|-2-----------2-4-----------------|
E|-2-----------2-------------------|---------------------------------|

G|---------------------------------|----------------/7---------------|
D|---------------------------------|-------------------------7-------|
A|-5---------------5-------5-------|-5-------------------------------|
E|-----------------------5-------5-|---------------------------------|

G|---------------------------------|---------------------------------|
D|---------------------------------|---------------------------------|
A|-5-------------------5-----------|-5-------5-----5-5---5-----6-----|
E|-----------------------------5---|---------------------------------|

OUTRO

G|---------------------------------|---------------------------------|
D|---------------------------------|---------------------------------|
A|-7-------7---------------7\------|---------7-------7-----7-----7---|
E|---------------------------------|-0-------------7---------7-9-----|

G|---------------------------------|---------------------------------|
D|---------------------------------|---------------------------------|
A|---------7-------7-----7-----7---|-7-------7-------7---------7-----|
E|-0-------------7---------7-9-----|---------------7---------7-----7-|

G|---------------------------------|---------------------------------|
D|---------------------------------|---------------------------------|
A|---------7-------7-----------7---|-7-------7-----------------------|
E|-0-------------7---------7-9-----|-----------------0---------------|

G|---------------------------------|---------------------------------|
D|---------------------------------|---------------------------------|
A|---------------------------------|---------------------------------|
E|-0-------------0---------------0-|-----------------0---------------|

G|---------------------------------|---------------------------------|
D|---------------------------------|---------------------------------|
A|---------------------------------|---------------------------------|
E|-0-------0-----------------------|---------------------------------|





Comments


Popular George Harrison tabs & chords
Devil's Radio Bass Tabs
Thats What It Takes Bass Tabs
Cosmic Empire Chords
Grey Cloudy Lies Chords
Here Comes The Moon 2 Chords
I Got My Mind Set On You 2 Chords
Living In The Material World Chords
While My Guitar Gently Weeps 1 Chords
I Dig Love Ukulele
See Yourself Ukulele


Song lyrics



↑ Back to top | Tablatures and chords are parodies/interpretations of the original songs. You may use it for private study, scholarship, research or language learning purposes only
© 2014 AZChords.com Contact us | Privacy policy | DMCA | Add/correct tabs | Request tabs | Top 50 tabs