» » »

Poor Little Girl Bass tabs (ver.1)

Artists:  A B C D E F G H I J K L M N O P Q R S T U V W X Y Z # 

Poor Little Girl Bass tabs (ver.1)

George Harrison
Rating:
0/5 (0 votes)

Tabs too difficult? Try these video lessons and learn fast.
                POOR LITTLE GIRL

George Harrison
Best Of Dark Horse 1976-1989

INTRO

G|---------------------------------|---------------------------------|
D|---------------------------------|---------------------------------|
A|-0-----------0---0-----------0---|---------------------------------|
E|---------------------------------|-0-----------0---0-----------0---|

G|---------------------------------|---------------------------------|
D|---------------------------------|---------------------------------|
A|-0-----------0---0-----------0---|-1-----------1---1-----------1---|
E|---------------------------------|---------------------------------|

G|---------------------------------|---------------------------------|
D|-3-----------3---2-----------2---|---------------------------------|
A|---------------------------------|-5-----------5-------------------|
E|---------------------------------|-----------------0-----------0---|

G|---------------------------------|---------------------------------|
D|---------------------------------|---------------------------------|
A|-0-----------0---0-----------0---|---------------------------------|
E|---------------------------------|-----0---0---3---3---0---0-------|

VERSE

G|---------------------------------|---------------------------------|
D|---------------------------------|---------------------------------|
A|-0-----------0---0-----------0---|---------------------------------|
E|---------------------------------|-0-----------0---0-----------0---|

G|---------------------------------|---------------------------------|
D|---------------------------------|---------------------------------|
A|-0-----------0---0-----------0---|-1-----------1---1-----------1---|
E|---------------------------------|---------------------------------|

G|---------------------------------|---------------------------------|
D|-3-----------3---2-----------2---|---------------------------------|
A|---------------------------------|-5-----------5-------------------|
E|---------------------------------|-----------------0-----------0---|

G|---------------------------------|---------------------------------|
D|---------------------------------|---------------------------------|
A|-0-----------0---0-----------0---|---------------------------------|
E|---------------------------------|-----0---0---3---3---0---0-------|

VERSE

G|---------------------------------|---------------------------------|
D|---------------------------------|---------------------------------|
A|-0-----------0---0-----------0---|---------------------------------|
E|---------------------------------|-0-----------0---0-----------0---|

G|---------------------------------|---------------------------------|
D|---------------------------------|---------------------------------|
A|-0-----------0---0-----------0---|-1-----------1---1-----------1---|
E|---------------------------------|---------------------------------|

G|---------------------------------|---------------------------------|
D|-3-----------3---2-----------2---|---------------------------------|
A|---------------------------------|-5-----------5-------------------|
E|---------------------------------|-----------------0-----------0---|

G|---------------------------------|---------------------------------|
D|---------------------------------|---------------------------------|
A|-0-----------0---0-----------0---|---------------------------------|
E|---------------------------------|-----0---0---3---3---3---3-------|

CHORUS

G|---------------------------------|---------------------------------|
D|---------------------------------|---------------------------------|
A|-3-----------3---3-----------3---|---------------------------------|
E|---------------------------------|-3-----------3---3-----------3---|

G|---------------------------------|---------------------------------|
D|---------------------------------|---------------------------------|
A|-3-----------3---3-----------3---|---------------------------------|
E|---------------------------------|-3-----------3---3-----------3---|

G|---------------------------------|---------------------------------|
D|---------------------------------|---------------------------------|
A|-3-----------3---3-----------3---|-5-----------5---5-----------5---|
E|---------------------------------|---------------------------------|

G|---------------------------------|---------------------------------|
D|---------------------------------|---------------------------------|
A|---------------------------------|---------------------------------|
E|-3-----------3---3-----------3---|-3-----------3---3-------3-------|

G|---------------------------------|---------------------------------|
D|---------------------------------|---------------------------------|
A|-3-----------3---3-----------3---|---------------------------------|
E|---------------------------------|-3-----------3---3-----------3---|

G|---------------------------------|---------------------------------|
D|---------------------------------|---------------------------------|
A|-3-----------3---3-----------3---|---------------------------------|
E|---------------------------------|-3-----------3---3-----------3---|

G|---------------------------------|---------------------------------|
D|---------------------------------|---------------------------------|
A|-3-----------3---3-----------3---|-5-----------5---5-----------5---|
E|---------------------------------|---------------------------------|

G|---------------------------------|---------------------------------|
D|---------------------------------|---------------------------------|
A|---------------------------------|---------------------------------|
E|-3-----------3---3-----------3---|-3-----------3---3-------3-------|

VERSE

G|---------------------------------|---------------------------------|
D|---------------------------------|---------------------------------|
A|-0-----------0---0-----------0---|---------------------------------|
E|---------------------------------|-0-----------0---0-----------0---|

G|---------------------------------|---------------------------------|
D|---------------------------------|---------------------------------|
A|-0-----------0---0-----------0---|-1-----------1---1-----------1---|
E|---------------------------------|---------------------------------|

G|---------------------------------|---------------------------------|
D|-3-----------3---2-----------2---|---------------------------------|
A|---------------------------------|-5-----------5-------------------|
E|---------------------------------|-----------------0-----------0---|

G|---------------------------------|---------------------------------|
D|---------------------------------|---------------------------------|
A|-0-----------0---0-----------0---|---------------------------------|
E|---------------------------------|-----0---0---3---3---0---0-------|

VERSE

G|---------------------------------|---------------------------------|
D|---------------------------------|---------------------------------|
A|-0-----------0---0-----------0---|---------------------------------|
E|---------------------------------|-0-----------0---0-----------0---|

G|---------------------------------|---------------------------------|
D|---------------------------------|---------------------------------|
A|-0-----------0---0-----------0---|-1-----------1---1-----------1---|
E|---------------------------------|---------------------------------|

G|---------------------------------|---------------------------------|
D|-3-----------3---2-----------2---|---------------------------------|
A|---------------------------------|-5-----------5-------------------|
E|---------------------------------|-----------------0-----------0---|

G|---------------------------------|---------------------------------|
D|---------------------------------|---------------------------------|
A|-0-----------0---0-----------0---|---------------------------------|
E|---------------------------------|-----0---0---3---3---3---3-------|

CHORUS

G|---------------------------------|---------------------------------|
D|---------------------------------|---------------------------------|
A|-3-----------3---3-----------3---|---------------------------------|
E|---------------------------------|-3-----------3---3-----------3---|

G|---------------------------------|---------------------------------|
D|---------------------------------|---------------------------------|
A|-3-----------3---3-----------3---|---------------------------------|
E|---------------------------------|-3-----------3---3-----------3---|

G|---------------------------------|---------------------------------|
D|---------------------------------|---------------------------------|
A|-3-----------3---3-----------3---|-5-----------5---5-----------5---|
E|---------------------------------|---------------------------------|

G|---------------------------------|---------------------------------|
D|---------------------------------|---------------------------------|
A|---------------------------------|---------------------------------|
E|-3-----------3---3-----------3---|-3-----------3---3-------3-------|

G|---------------------------------|---------------------------------|
D|---------------------------------|---------------------------------|
A|-3-----------3---3-----------3---|---------------------------------|
E|---------------------------------|-3-----------3---3-----------3---|

G|---------------------------------|---------------------------------|
D|---------------------------------|---------------------------------|
A|-3-----------3---3-----------3---|---------------------------------|
E|---------------------------------|-3-----------3---3-----------3---|

G|---------------------------------|---------------------------------|
D|---------------------------------|---------------------------------|
A|-3-----------3---3-----------3---|-5-----------5---5-----------5---|
E|---------------------------------|---------------------------------|

G|---------------------------------|---------------------------------|
D|---------------------------------|---------------------------------|
A|---------------------------------|---------------------------------|
E|-3-----------3---3-----------3---|-3-----------3---3-------3-------|

VERSE

G|---------------------------------|---------------------------------|
D|---------------------------------|---------------------------------|
A|-0-----------0---0-----------0---|---------------------------------|
E|---------------------------------|-0-----------0---0-----------0---|

G|---------------------------------|---------------------------------|
D|---------------------------------|---------------------------------|
A|-0-----------0---0-----------0---|-1-----------1---1-----------1---|
E|---------------------------------|---------------------------------|

G|---------------------------------|---------------------------------|
D|-3-----------3---2-----------2---|---------------------------------|
A|---------------------------------|-5-----------5-------------------|
E|---------------------------------|-----------------0-----------0---|

G|---------------------------------|---------------------------------|
D|---------------------------------|---------------------------------|
A|-0-----------0---0-----------0---|---------------------------------|
E|---------------------------------|-----0---0---3---3---0---0-------|

VERSE

G|---------------------------------|---------------------------------|
D|---------------------------------|---------------------------------|
A|-0-----------0---0-----------0---|---------------------------------|
E|---------------------------------|-0-----------0---0-----------0---|

G|---------------------------------|---------------------------------|
D|---------------------------------|---------------------------------|
A|-0-----------0---0-----------0---|-1-----------1---1-----------1---|
E|---------------------------------|---------------------------------|

G|---------------------------------|---------------------------------|
D|-3---------------2-----------2---|---------------------------------|
A|---------------------------------|-5---7---5---3-------------------|
E|---------------------------------|-----------------0-----------0---|

G|---------------------------------|---------------------------------|
D|---------------------------------|---------------------------------|
A|-0-----------0---0-----------0-0-|---------------------------------|
E|---------------------------------|-----0---0---3---3---3---3-------|

CHORUS

G|---------------------------------|---------------------------------|
D|---------------------------------|---------------------------------|
A|-3-----------3---3-----------3---|---------------------------------|
E|---------------------------------|-3-----------3---3-----------3---|

G|---------------------------------|---------------------------------|
D|---------------------------------|---------------------------------|
A|-3-----------3---3-----------3---|---------------------------------|
E|---------------------------------|-3-----------3---3-----------3---|

G|---------------------------------|---------------------------------|
D|---------------------------------|---------------------------------|
A|-3-----------3---3-----------3---|-5-----------5---5-----------5---|
E|---------------------------------|---------------------------------|

G|---------------------------------|---------------------------------|
D|---------------------------------|---------------------------------|
A|---------------------------------|---------------------------------|
E|-3-----------3---3-----------3---|-3-----------3---3-------3-------|

G|---------------------------------|---------------------------------|
D|---------------------------------|---------------------------------|
A|-3-----------3---3-----------3---|---------------------------------|
E|---------------------------------|-3-----------3---3-----------3---|

G|---------------------------------|---------------------------------|
D|---------------------------------|---------------------------------|
A|-3-----------3---3-----------3---|---------------------------------|
E|---------------------------------|-3-----------3---3-----------3---|

G|---------------------------------|---------------------------------|
D|---------------------------------|---------------------------------|
A|-3-----------3---3-----------3---|-5-----------5---5-----------5---|
E|---------------------------------|---------------------------------|

G|---------------------------------|---------------------------------|
D|---------------------------------|---------------------------------|
A|---------------------------------|---------------------------------|
E|-3-----------3---3-----------3---|-3-----------3---3-------3-------|

CHORUS

G|---------------------------------|---------------------------------|
D|---------------------------------|---------------------------------|
A|-3-----------3---3-----------3---|---------------------------------|
E|---------------------------------|-3-----------3---3-----------3---|

G|---------------------------------|---------------------------------|
D|---------------------------------|---------------------------------|
A|-3-----------3---3-----------3---|---------------------------------|
E|---------------------------------|-3-----------3---3-----------3---|

G|---------------------------------|---------------------------------|
D|---------------------------------|---------------------------------|
A|-3-----------3---3-----------3---|-5-----------5---5-----------5---|
E|---------------------------------|---------------------------------|

G|---------------------------------|---------------------------------|
D|---------------------------------|---------------------------------|
A|---------------------------------|---------------------------------|
E|-3-----------3---3-----------3---|-3-----------3---3-------3-------|

G|---------------------------------|---------------------------------|
D|---------------------------------|---------------------------------|
A|-3-----------3---3-----------3---|---------------------------------|
E|---------------------------------|-3-----------3---3-----------3---|

G|---------------------------------|---------------------------------|
D|---------------------------------|---------------------------------|
A|-3-----------3---3-----------3---|---------------------------------|
E|---------------------------------|-3-----------3---3-----------3---|

G|---------------------------------|---------------------------------|
D|---------------------------------|---------------------------------|
A|-3-----------3---3-----------3---|-5-----------5---5-----------5---|
E|---------------------------------|---------------------------------|

G|---------------------------------|---------------------------------|
D|---------------------------------|---------------------------------|
A|---------------------------------|---------------------------------|
E|-3-----------3---3-----------3---|-3-----------3---3-------3-------|

OUTRO

G|---------------------------------|---------------------------------|
D|---------------------------------|---------------------------------|
A|-0-----------0---0-----------0---|---------------------------------|
E|---------------------------------|-0-----------0---0-----------0---|

G|---------------------------------|---------------------------------|
D|---------------------------------|---------------------------------|
A|-0-----------0---0-----------0---|-1-----------1---1-----------1---|
E|---------------------------------|---------------------------------|

G|---------------------------------|---------------------------------|
D|-3-----------3---2-----------2---|---------------------------------|
A|---------------------------------|-5-----------5-------------------|
E|---------------------------------|-----------------0-----------0---|

G|---------------------------------|---------------------------------|
D|---------------------------------|---------------------------------|
A|-0-----------0---0-----------0---|---------------------------------|
E|---------------------------------|-----0---0---3---3---0---0-------|

G|---------------------------------|---------------------------------|
D|---------------------------------|---------------------------------|
A|-0-------------------------------|---------------------------------|
E|---------------------------------|---------------------------------|
            
Tabs too difficult? Try these video lessons and learn fast.




comments powered by Disqus
↑ Back to top | Tablatures and chords are parodies/interpretations of the original songs. You may use it for private study, scholarship, research or language learning purposes only