» » »

George Harrison, I'd Have You Anytime Tabs (ver.2)

Artists:  A B C D E F G H I J K L M N O P Q R S T U V W X Y Z # 

I'd Have You Anytime Tabs (ver.2)

George Harrison Tabs
 Rating:
4/5 (4 votes)
I'd Have You Anytime lessons Tabs too difficult? Try these video lessons and learn fast
                "(1)
My first chords/tab.
I hope thats will be helpful for you. 

Gmaj7:  xx5432 or 320002
Bbmaj7: xx8765 or x13231
Cm:     x35543
G:      320033
Am:     x02210
Em:     022000
D:      xx0232
A:      x02220
E:      022100
C:      x32010
F:      133211
D/C:    x30232
D/B:    x20032
D/Bb:   x10032
Asus4:  x02230
Intro: 
     Gmaj7                 Bbmaj7              Cm
E|----------------------------------------------------3-6-3-6/8-6--------|
B|------------10------------------------13---------/4--------------8-----|
G|---9/11--9-----9-----------12/14--12-----14----------------------------|
D|-----------------------------------------------------------------------|
A|-----------------------------------------------------------------------|
E|-----------------------------------------------------------------------|

    G        Am           Em  D
E|--7-5------10/12----10-------------|
B|--------8------------------/8------|
G|-------------------------------7---|
D|-----------------------------------|
A|-----------------------------------|
E|-----------------------------------| 

Verse:

Gmaj7 Bbmaj7 Cm Gmaj7 Em D 
Gmaj7 Bbmaj7 Cm

    G        Am           Em  D
E|--7-5----------------------------|
B|--------8----3h5p3---------------|
G|------------------------2p0------|
D|-----------------------------2-0-|
A|---------------------------------|
E|---------------------------------|

Ref.
A      E        D
All I have is yours
C        G       F   A
All you see is mine
          D              D/C
And I'm glad to hold you in my arms
D/B          D/Bb  A  Asus4 A
I'd have you anytime



soon i'll complete it :)
"            
Submit corrections

comments powered by Disqus
↑ Back to top | George Harrison Tabs for I'd Have You Anytime. Lyrics for acoustic guitar and electric guitar. Tablatures and chords are parodies/interpretations of the original songs. You may use it for private study, scholarship, research or language learning purposes only