» » »

Here Comes The Sun Tabs (ver.2)

Artists:  A B C D E F G H I J K L M N O P Q R S T U V W X Y Z # 

Here Comes The Sun Tabs (ver.2)

George Harrison
Rating:
0/5 (0 votes)

Hard to play? Try these video lessons and learn fast.
                This song was written by George Harrison while he was in The Beatles. It was released in
and was on the album Abbey Road. This is how I think it was played by George Harrison.
know for a fact that he does NOT finger pick it. He uses a pick. I sat down MANY times  
to listen and transcribe this. He strums the bottom of each chord while playing the
on the top strings. This tab is an example of that, you just keep a steady up and down 
pattern and it will sound good. Capo 7th fret.

The intro and verse goes like this:

     E  E  E  E  E  E     E  E  E  E  E  E  E  E     E  E  E  E  E  E  E  E
E||--2-----0--2--------|--------2--0--------------|-----------0--------------|
B||--3--3--3--3-----3--|--------------3--------0--|-----3-----------3-----0--|
G||--2--2-----------2--|--2-----------2--2-----0--|-----------------0-----0--|
D||--0-----------0--0--|--0--0--------0--0-----0--|--------------------------|
A||--------------------|--------------------0--2--|--2-----2-----2-----2-----|
E||--------------------|--------------------0--3--|--3-----3-----3-----3-----|


  E  E  E  E  E  E  E  E     Q    E  E  E  Q    E     E  E  E  E  E  E  E  E
-----------------0--------|-------2--2--0--2-------|--------2--0--------------|
--2--0--2--3-----2--------|--3----3--3--3--3----3--|--3-----3--3-----3-----0--|
--0--0--0--0--0--0--------|--2----2-----2--2----2--|--2--2-----------2-----0--|
--2--0--2--0--2-----------|--0----------0--0-------|--0--0--------0--0--------|
--0-----0-----0-----------|------------------------|--------------------0--2--|
--------------------------|------------------------|--------------------0--3--|


                                                       ^
  E  E  E  E  E  E  E  E     W                   E  E  E  E  E  Q    E
-----2-----0--------------|-------------------|--------2--0--0--2-------|
-----------------3-----2--|-------------------|--------3-----3--3----3--|
-----------------0-----0--|-------------------|--------2-----2--2-------|
-----------------0-----2--|-------------------|--0--0--------0--0-------|
--2-----------2--2--2--0--|-------------------|-------------------------|
--3-----3-----3--3--3-----|-------------------|-------------------------|


  E  E  E  E  E  E  E  E     Q    E  E  E  E  E  E     E  E  Q    Q    Q
--------2-----0--2--------|-------2--0-----2--------|-----------------------|
-----3--3--3--------3--0--|--0----0-----0--------3--|-----3--3----3----3----|
-----2--------------2--0--|--0----0-----0-----0--1--|--1--1--1----1----1----|
-----0--------------0--0--|--0----0-----0-----0--0--|--0--0--0----0----0----|
--------------------------|--2----------2-----0--2--|--2--2--2----2----2----|
--------------------------|--3----------3-----------|--0--0--0----0----0----|


  E  Q    E  E  Q    E      E  E  E  E  E  E  E  E     E  E  E  E  E  E  E  E
-----2----0--------------|--------0--------0--------|--0--------0--------------|
----------------3--------|-----3--------3--------3--|--------3-----3--2--------|
---------------------2/--|-/4--------2--------0-----|-----2--------------4--2--|
-------------------------|--------------------------|--------------------------|
-------------------------|--------------------------|--------------------------|
-------------------------|--------------------------|--------------------------|

The middle section:

|-----------|
|-----------|
|-----------|
|--------2--|
|--0--4-----|
|-----------|


  E  E  E     E  E  E     E  E  E  E  E     Q    Q    E  E  Q       Q    E  E
-----------|-----------|-----------------|-------2----2--2--2----|--0----0-----|
--------1--|-----------|-----------------|-------3----3--3--3----|--2----2--2--|
-----2-----|--------0--|--------0--------|-------2----2--2--2----|--0----0--0--|
--3--------|-----2-----|-----0-----------|--0--------------------|--2----2--2--|
-----------|--3--------|--2-----------2--|-----------------------|--0----0--0--|
-----------|-----------|-----------3-----|-----------------------|-------------|


and also


  E  E  Q    E  E  E  E     H        E  E  E  E     H        E  E  E  E
-------------------------|--------------------0--|--L--------L-----0--3--|
--L--2--2----2--0--2--3--|--L--------L--2--3-----|--------------3-----2--|
--L--0--0----0-----------|-----------------------|--------------------0--|
--L--2--2----2-----------|-----------------------|--------------------2--|
--L-----0----------------|-----------------------|--------------------0--|
-------------------------|-----------------------|-----------------------|


  E  E  E  E  Q    E  E     Q    E  E  E  Q    E     Q    E  E  E  Q    E
--L--3--3--3--3----3-----|-------2-----0--2-------|-------2--0--L----------|
--L--2--2--2--2----2--0--|--3-------3----------3--|--L-------------3----0--|
--L--0--0--0--0----0-----|--2------------------2--|--L-------------2----0--|
--L--2--2--2--2----2-----|--0---------------------|---------------------0--|
--L--0--0--0--0----0-----|--0---------------------|------------------------|
-------------------------|------------------------|------------------------|


  E  E  E  E  E  E  E  E     E  E  E  E  E  Q    E     Q    E  E  E  Q    E
-----------0--L-----------|-----------------0----L--|-------2--2--0--2-------|
--L--3--3--0--L--3--L--0--|--2--0--2--3--L--2----L--|--3----3-------------3--|
--L--0-----------------0--|--0-----0--0--L--0-------|--2------------------2--|
--L--0--0-----0-----0-----|--2-----2--2--L--2-------|--0---------------------|
--------2-----2-----2-----|--0-----0--0--L--0-------|--0---------------------|
--------3-----3-----3-----|-------------------------|------------------------|


-Adam B
            
Hard to play? Try these video lessons and learn fast. | Correct




comments powered by Disqus
↑ Back to top | Tablatures and chords are parodies/interpretations of the original songs. You may use it for private study, scholarship, research or language learning purposes only