» » »

George Harrison, Got My Mind Set On You Bass tabs (ver.1)

Artists:  A B C D E F G H I J K L M N O P Q R S T U V W X Y Z # 

Got My Mind Set On You Bass tabs (ver.1)

George Harrison Tabs
Rating:
0/5 (0 votes)
Got My Mind Set On You lessons Tabs too difficult? Try these video lessons and learn fast
                GOT MY MIND SET ON YOU


George Harrison


INTRO


   X       x       X   X   x         X   X   x   X       X   x
G|---------------------------------|---------------------------------|
D|---------------------------------|---------------------------------|
A|---------------------------------|---------------------------------|
E|---------------------------------|---------------------------------|



   X       x       X   X   x         X   X   x   X       X   x
G|---------------------------------|---------------------------------|
D|---------------------------------|---------------------------------|
A|---------------------------------|---------------------------------|
E|---------------------------------|---------------------------------|



CHORUS


   X       x       X   X   x         X   X   x   X       X   x
G|---------------------------------|---------------------------------|
D|---------------------------------|---------------------------------|
A|---------------------------------|---------------------------------|
E|---------------------------------|---------------------------------|



   X       x       X   X   x         X   X   x   X       X   x
G|---------------------------------|---------------------------------|
D|---------------------------------|---------------------------------|
A|---------------------------------|---------------------------------|
E|---------------------------------|---------------------------------|



   X       x       X   X   x         X   X   x   X       X   x
G|---------------------------------|---------------------------------|
D|---------------------------------|---------------------------------|
A|---------------------------------|---------------------------------|
E|---------------------------------|---------------------------------|



   X       x       X   X   x         X   X   x   X       X   x
G|---------------------------------|---------------------------------|
D|---------------------------------|---------------------------------|
A|---------------------------------|---------------------------------|
E|---------------------------------|---------------------------------|



VERSE


G|---------------------------------|---------------------------------|
D|---------------------------------|---------------------------------|
A|---------------------------------|---------------------------------|
E|-0---------------5---------------|-7-----------7---7---------------|



G|---------------------------------|---------------------------------|
D|---------------------------------|---------------------------------|
A|---------------------------------|---------------------------------|
E|-0-----------0---5---------------|-7-----------7---7-------7-------|



G|---------------------------------|---------------------------------|
D|---------------------------------|---------------------------------|
A|---------------------------------|---------------------------------|
E|-0-----------0---5-----------5---|-7-----------7---7---------------|



G|---------------------------------|---------------------------------|
D|---------------------------------|---------------------------------|
A|---------------------------------|---------------------------------|
E|-0-----------0---5-----------5---|-7-------------------------------|



VERSE


G|---------------------------------|---------------------------------|
D|---------------------------------|---------------------------------|
A|---------------------------------|---------------------------------|
E|-0---------------5---5-------5---|-7-----------7---7-------7-------|



G|---------------------------------|---------------------------------|
D|---------------------------------|---------------------------------|
A|---------------------------------|---------------------------------|
E|-0-----------0---5-----------5---|-7-----------7---7---------------|



G|---------------------------------|---------------------------------|
D|---------------------------------|---------------------------------|
A|---------------------------------|---------------------------------|
E|-0-----------0---5-----------5---|-7-----------7---7---------------|



G|---------------------------------|---------------------------------|
D|---------------------------------|---------------------------------|
A|---------------------------------|---------------------------------|
E|-0-----------0---5-----------5---|-0-----------0---5-----------5---|



G|---------------------------------|---------------------------------|
D|---------------------------------|---------------------------------|
A|---------------------------------|---------------------------------|
E|-0-----------0---5-----------5---|-0-----------0---0-------0-------|



G|---------------------------------|
D|---------------------------------|
A|---------------------------------|
E|-0-------------------------------|



CHORUS


G|---------------------------------|---------------------------------|
D|---------------------------------|---------------------------------|
A|-4---------------------------4---|---------------------------------|
E|-----------------4---------------|---------------------------------|



G|---------------------------------|---------------------------------|
D|-2---------------------------2---|---------------------------------|
A|-----------------2---------------|---------------------------------|
E|---------------------------------|---------------------------------|



G|---------------------------------|---------------------------------|
D|---------------------------------|---------------------------------|
A|-4---------------------------4---|---------------------------------|
E|-----------------4---------------|---------------------------------|



G|---------------------------------|---------------------------------|
D|-2---------------------------2---|---------------------------------|
A|-----------------2---------------|---------------------------------|
E|---------------------------------|---------------------------------|



BRIDGE


G|---------------------------------|---------------------------------|
D|---------------------------------|-------------------------2-------|
A|-------------------------2-------|-0-----------4-------------------|
E|-0-----------4-------------------|---------------------------------|



G|---------------------------------|---------------------------------|
D|---------------------------------|-------------------------2-------|
A|-------------------------2-------|-0-----------4-------------------|
E|-0-----------4-------------------|---------------------------------|



G|---------------------------------|---------------------------------|
D|---------------------------------|-------------------------2-------|
A|-------------------------2-------|-0-----------4-------------------|
E|-0-----------4-------------------|---------------------------------|



G|---------------------------------|---------------------------------|
D|---------------------------------|-------------------------4-------|
A|-------------------------2-------|-2-----------6-------------------|
E|-0-----------4-------------------|---------------------------------|



G|---------------------------------|
D|---------------------------------|
A|-2-------------------------------|
E|---------------------------------|



CHORUS


G|---------------------------------|---------------------------------|
D|---------------------------------|---------------------------------|
A|-4---------------------------4---|---------------------------------|
E|-----------------4---------------|---------------------------------|



G|---------------------------------|---------------------------------|
D|-2-------------------------------|---------------------------------|
A|-----------------2---------------|---------------------------------|
E|-----------------------------0---|---------------------------------|



G|---------------------------------|---------------------------------|
D|---------------------------------|---------------------------------|
A|-4---------------------------4---|---------------------------------|
E|-----------------4---------------|---------------------------------|



G|---------------------------------|---------------------------------|
D|-2-------------------------------|---------------------------------|
A|-----------------2---------------|---------------------------------|
E|-----------------------------0---|---------------------------------|



VERSE


G|---------------------------------|---------------------------------|
D|---------------------------------|---------------------------------|
A|---------------------------------|---------------------------------|
E|-0-----------0---5---5-------5---|-7-----------7---7---7-----------|



G|---------------------------------|---------------------------------|
D|---------------------------------|---------------------------------|
A|---------------------------------|---------------------------------|
E|-0-----------0---5---5-------5---|-7-----------7---7-------7-------|



G|---------------------------------|---------------------------------|
D|---------------------------------|---------------------------------|
A|---------------------------------|---------------------------------|
E|-0-----------0---5-----------5---|-7-----------7---7-------7-------|



G|---------------------------------|---------------------------------|
D|---------------------------------|---------------------------------|
A|---------------------------------|---------------------------------|
E|-0-----------0---5-----------5---|-7-------------------------------|



VERSE


G|---------------------------------|---------------------------------|
D|---------------------------------|---------------------------------|
A|---------------------------------|---------------------------------|
E|-0-----------0---5-----------5---|-7-----------7---7---7-----------|



G|---------------------------------|---------------------------------|
D|---------------------------------|---------------------------------|
A|---------------------------------|---------------------------------|
E|-0-----------0---5-----------5---|-7-----------7---7-------7-------|



G|---------------------------------|---------------------------------|
D|---------------------------------|---------------------------------|
A|---------------------------------|---------------------------------|
E|-0-----------0---5-----------5---|-7-----------7---7---------------|



G|---------------------------------|---------------------------------|
D|---------------------------------|---------------------------------|
A|---------------------------------|---------------------------------|
E|-0-----------0---5-----------5---|-0-----------0---5-----------5---|



G|---------------------------------|---------------------------------|
D|---------------------------------|---------------------------------|
A|---------------------------------|---------------------------------|
E|-0-----------0---5-----------5---|-0-----------0-------0---0-------|



G|---------------------------------|
D|---------------------------------|
A|---------------------------------|
E|-0-------------------------------|



SAX SOLO


G|---------------------------------|---------------------------------|
D|---------------------------------|---------------------------------|
A|-4---------------------------4---|---------------------------------|
E|-----------------4---------------|---------------------------------|



G|---------------------------------|---------------------------------|
D|-2---------------------------2---|---------------------------------|
A|-----------------2---------------|---------------------------------|
E|---------------------------------|---------------------------------|



G|---------------------------------|---------------------------------|
D|---------------------------------|---------------------------------|
A|-4---------------------------4---|---------------------------------|
E|-----------------4---------------|---------------------------------|



G|---------------------------------|---------------------------------|
D|-2---------------------------2---|-------------2-----------2-------|
A|-----------------2---------------|---------4-----------4-----------|
E|---------------------------------|---------------------------------|



CHORUS


G|---------------------------------|---------------------------------|
D|---------------------------------|---------6---4-------2---4-------|
A|-4---------------------------4---|---------------------------------|
E|-----------------4---------------|---------------------------------|



G|---------------------------------|---------------------------------|
D|-2-------------------------------|-------------2-----------2-------|
A|-----------------2---------------|---------4-----------4-----------|
E|-----------------------------0---|---------------------------------|



G|---------------------------------|---------------------------------|
D|---------------------------------|---------6---4-------2---4-------|
A|-4---------------------------4---|---------------------------------|
E|-----------------4---------------|---------------------------------|



G|---------------------------------|---------------------------------|
D|-2-------------------------------|---------------------------------|
A|-----------------2---------------|---------------------------------|
E|-----------------------------0---|---------------------------------|



BRIDGE


G|---------------------------------|---------------------------------|
D|---------------------------------|-------------------------2-------|
A|-------------------------2-------|-0-----------4-------------------|
E|-0-----------4-------------------|---------------------------------|



G|---------------------------------|---------------------------------|
D|---------------------------------|-------------------------2-------|
A|-------------------------2-------|-0-----------4-------------------|
E|-0-----------4-------------------|---------------------------------|



G|---------------------------------|---------------------------------|
D|---------------------------------|-------------------------2-------|
A|-------------------------2-------|-0-----------4-------------------|
E|-0-----------4-------------------|---------------------------------|



G|---------------------------------|---------------------------------|
D|---------------------------------|-------------------------4-------|
A|-------------------------2-------|-2-----------6-------------------|
E|-0-----------4-------------------|---------------------------------|



G|---------------------------------|
D|---------------------------------|
A|-2-----------2-------2---2---2---|
E|---------------------------------|



VERSE


G|---------------------------------|---------------------------------|
D|---------------------------------|---------------------------------|
A|---------------------------------|---------------------------------|
E|-0-----------0---5-----------5---|-7-----------7---7-------7-------|



G|---------------------------------|---------------------------------|
D|---------------------------------|---------------------------------|
A|---------------------------------|---------------------------------|
E|-0-----------0---5-----------5---|-7-----------7---7---------------|



G|---------------------------------|---------------------------------|
D|---------------------------------|---------------------------------|
A|---------------------------------|---------------------------------|
E|-0-----------0---5-----------5---|-7-----------7---7---7-----------|



G|---------------------------------|---------------------------------|
D|---------------------------------|---------------------------------|
A|---------------------------------|---------------------------------|
E|-0-----------0---5-----------5---|-7-----------7---7-------7-------|



VERSE


G|---------------------------------|---------------------------------|
D|---------------------------------|---------------------------------|
A|---------------------------------|---------------------------------|
E|-0-----------0---5-----------5---|-7-----------7---7-------7-------|



G|---------------------------------|---------------------------------|
D|---------------------------------|---------------------------------|
A|---------------------------------|---------------------------------|
E|-0-----------0---5-----------5---|-7-----------7---7-------7-------|



G|---------------------------------|---------------------------------|
D|---------------------------------|---------------------------------|
A|---------------------------------|---------------------------------|
E|-0-----------0---5-----------5---|-7-----------7---7---7-----------|



G|---------------------------------|---------------------------------|
D|---------------------------------|---------------------------------|
A|---------------------------------|---------------------------------|
E|-0-----------0---5-----------5---|-0-----------0---5-----------5---|



G|---------------------------------|---------------------------------|
D|---------------------------------|---------------------------------|
A|---------------------------------|---------------------------------|
E|-0-----------0---5-----------5---|-0-----------0-----------0-------|


           x   x   X   X   x   x
G|---------------------------------|
D|---------------------------------|
A|---------------------------------|
E|-0-------------------------------|



INTERLUDE


G|---------------------------------|---------------------------------|
D|---------------------------------|---------------------------------|
A|-4---------------------------4---|---------------------------------|
E|-----------------4---------------|---------------------------------|



G|---------------------------------|---------------------------------|
D|-2-------------------------------|---------------------------------|
A|-----------------2---------------|-------------------------2-------|
E|-----------------------------0---|-------------4-------4-----------|



G|---------------------------------|---------------------------------|
D|---------------------------------|---------------------------------|
A|-4---------------------------4---|-------------4-------4---6-------|
E|-----------------4---------------|---------------------------------|



G|---------------------------------|---------------------------------|
D|-2-------------------------------|---------------------------------|
A|-----------------2---------------|-------------2---2---2---2-------|
E|-----------------------------0---|---------------------------------|



OUTRO - SAX SOLO


G|---------------------------------|---------------------------------|
D|---------------------------------|---------------------------------|
A|-4---------------------------4---|---------------------------------|
E|-----------------4---------------|---------------------------------|



G|---------------------------------|---------------------------------|
D|-2---------------------------2---|---------------------------------|
A|-----------------2---------------|---------------------------------|
E|---------------------------------|---------------------------------|



G|---------------------------------|---------------------------------|
D|---------------------------------|---------------------------------|
A|-4---------------------------4---|---------------------------------|
E|-----------------4---------------|---------------------------------|



G|---------------------------------|---------------------------------|
D|-2-------------------------------|---------------------------------|
A|-----------------2---------------|---------------------------------|
E|-----------------------------0---|---------------------------------|



G|---------------------------------|---------------------------------|
D|---------------------------------|---------------------------------|
A|-4---------------------------4---|---------------------------------|
E|-----------------4---------------|---------------------------------|



G|---------------------------------|---------------------------------|
D|-2-------------------------------|---------------------------------|
A|-----------------2---------------|---------------------------------|
E|-----------------------------0---|---------------------------------|



G|---------------------------------|---------------------------------|
D|---------------------------------|---------------------------------|
A|-4---------------------------4---|---------------------------------|
E|-----------------4---------------|---------------------------------|



G|---------------------------------|---------------------------------|
D|-2-------------------------------|---------------------------------|
A|-----------------2---------------|---------------------------------|
E|-----------------------------0---|---------------------------------| ....
            
Submit corrections

comments powered by Disqus
↑ Back to top | George Harrison Bass for Got My Mind Set On You. Lyrics for acoustic guitar and electric guitar. Tablatures and chords are parodies/interpretations of the original songs. You may use it for private study, scholarship, research or language learning purposes only