» » »

George Harrison, Cockamamie Business Chords (ver.1)

Artists:  A B C D E F G H I J K L M N O P Q R S T U V W X Y Z # 

Cockamamie Business Chords (ver.1)

George Harrison Tabs
Rating:
0/5 (0 votes)
Cockamamie Business lessons Tabs too difficult? Try these video lessons and learn fast
                ---------------------------------------------------------------------------
---------------------------------------------------------------------------
Tuning: Standard

George Harrison
Cockamamie Business (1989)
(George Harrison)


---------------------------------------------------------------------------
INTRO
  
e|0-------0-------|0-------0-------|3-------2-------|0-----------0---|
B|0-------0-------|1-------1-------|5-------4-------|0-----------0---|
G|0-------0-------|2-------2-------|3-------2-------|0-----------0---|
D|2-------2-------|2---x---x-------|5-------4-------|2-----------2---|
A|2-------2-------|0---2---3---0---|3-------2-------|2---2p0---------|
E|0---2---3---0---|----------------|----------------|0------3-0------|


VERSE, Part 1: RIFF
  Em               B7               Em
e|----------------|----------------|----------------|----------------|
B|----------------|----------------|----------------|----------------|
G|----------------|----4-4-2-2-----|----------------|----------------|
D|----2-2---------|------------4-4-|----2-2---------|----2-2---------|
A|--------5-5-2-2-|2-2-------------|--------5-5-2-2-|--------5-5-2-2-|
E|0-0-------------|----------------|0-0-------------|0-0-------------|
  Am               D                B7
e|----------------|----------------|----------------|----------------|
B|----------------|----------------|----------------|----------------|
G|----2-2---------|----7-7-5-5-----|----4-4-2-2-----|----------------|
D|--------5-5-2-2-|------------7-7-|------------4-4-|----------------|
A|0-0-------------|5-5-------------|2-2-------------|--2-2-2-5~--2---|
E|----------------|----------------|----------------|----------------|

---------------------------------------------------------------------------

INTRO
| Em | Am | C7 B7 | Em |
| Em | Am | C7 B7 | Em |

        Em                         B7             Em
Bust my back on the Levy, broke my strings on the BBC
         Am                               D              B7  
Found my chops on Eel Pie Island, paid my dues at the Marquee
        Em                         Am
Slagged off by the N.M.E., lost my stash and my virginity
        C7         B7  Em
In this cockamamie  business

| Em | Am | C7 B7 | Em |

        Em                           B7                Em
Got my face on Ed Sullivan, broke my heart on the Soul Train
     Am                         D                   B7     
Introduced to Bad Company, lost cells down at Brain Drain
      Em                           Am         
And before I could mend, lost the missus, missed the girlfriend
        C7         B7  Em
In this cockamamie business

| Em | Am | C7 B7 | Em |
| Em | Am | C7 B7 | Em |

       Em                                B7               Em
Now we like to air condition, though the air has no ozone ring 
              Am                             D                      B7  
Still they're chopping down the forest for McDonalds and the Burger King
       Em                                  Am
Eating cows with such persistence, doesn't offer much resistance
        C7         B7  Em
To this cockamamie business

| Em | Am | C7 B7 | Em |
| Em | Am | C7 B7 | Em |

       Em                  B7                               Em
There are too many things, stressing out the nervous system
Am                      D                         B7  
Girls you used to know, fellas that may have kissed'em
         Em                               Am
Some got rabies, some got fleas, some got incurable diseases
          C7         B7  Em

| Em | Am | C7 B7 | Em |
| Em | Am | C7 B7 | Em |

     Em              B7                      Em
Everybody's after as many points as they can get
   Am                                D                           B7
As long as it's not them that has to pay no one really minds the debt
       Em                              Am
5-Star actors, tax inspectors, film producers and directors
           C7         B7  Em
With their cockamamie business

| Em | Am | C7 B7 | Em |
| Em | Am | C7 B7 | Em |

         Em               B7                      Em
Well you do what you can, can't do much more than that
                                    (No you can't do what he just said)
     Am                           D                        B7 
Some days you're pretty sharp, on other days you feel half dead
                                    (While you make your daily bread)
       Em                         Am
Didn't want to be a star, wanted just to play guitar
        C7         B7  Em
In this cockamamie business

| Em | Am | C7 B7 | Em |
| Em | Am | C7 B7 | Em |
          cockamamie business 
| Em | Am | C7 B7 | Em |
| Em | Am | C7 B7 | Em |
          cockamamie business 
| Em | Am | C7 B7 | Em |
| Em | Am | C7 B7 | Em |
          cockamamie business 
            
Submit corrections

comments powered by Disqus
↑ Back to top | George Harrison Chords for Cockamamie Business. Lyrics for acoustic guitar and electric guitar. Tablatures and chords are parodies/interpretations of the original songs. You may use it for private study, scholarship, research or language learning purposes only