» » »

Be Here Now Tabs (ver.1)

Artists:  A B C D E F G H I J K L M N O P Q R S T U V W X Y Z # 

Be Here Now Tabs (ver.1)

George Harrison
Rating:
0/5 (0 votes)

Hard to play? Try these video lessons and learn fast.
                (Intro)


No Capo


Intro:

e|-----------------------5--5--5----5-------------------5----------------|
b|-----------------------5--5--5----5------------|-5----5-------5--------|
g|---------------4/6-----6--6--6---[6]-----------|-6----6-------6--------|
d|-----4h6h7-------------7--7--7----7----9p7p6---|-7----7-------7--------|
a|--7---------0=================-----------------v[7]=======0==========--|
e|-----------------------------------------------------------------------|


e|-------------------5--------5-5---5---5---5---5---------5-----5--0-----|
b|-------------------5--5--5--5-5---5---5---5---5---|-5---5-----5--5-----|
g|--------------4/6--6--6-[6]-6-6--[6]-[4]----------|-6---6-----6--6-----|
d|-----4h6h7------------7--7---------------[7]-[6]--|-7---7-----7--7-----|
a|--7---------0=====================----------------v[7]=====0=========--|
e|-----------------------------------------------------------------------|


h - hammer on 
p - pull off 
/ - slide up
\ - slide down
[]- emphasize note
= - Sustain
| - downstroke
v 

This is the intro to the beautiful song "Be Here Now". I could not find it 
anywhere on the web so I decided to painstakingly tab it myself. Listen to
the album to get the rhythm of the guitar. George Harrison is my favorite 
artist so I had to get this tab out there!


Comments and suggestions?
            
Hard to play? Try these video lessons and learn fast. | Correct




comments powered by Disqus
↑ Back to top | Tablatures and chords are parodies/interpretations of the original songs. You may use it for private study, scholarship, research or language learning purposes only