» » »

George Harrison, Any Road Tabs (ver.1)

Artists:  A B C D E F G H I J K L M N O P Q R S T U V W X Y Z # 

Any Road Tabs (ver.1)

George Harrison Tabs
Rating:
5/5 (7 votes)
Hard to play? Try these video lessons and learn fast.
                Any Road written by George Harrison, played with his son Dhani Harrison.

Standard Tunning

Tablature Legend
----------------
 h   - hammer-on
 p   - pull-off
 b   - bend
 /\  - slide into or out of (from/to "nowhere")
 ~   - vibrato

Intro: G, C/g, G, D/f#, G, D/f#, G

e|---------------------------------------------------------------|
b|--------------------------------------------------------15~----|
g|-9/11---14-14h15-11--14b--11--14-----------11------------------|
D|---------------------------------12-14b-12----12-14b-12--------|
A|---------------------------------------------------------------|
E|---------------------------------------------------------------|

Verse:
G                        C          G
I've been traveling on a boat and a plane
     D/f#     G           D/f#      G
In a car on a bike with a bus and a train
G                C         G
Traveling there, traveling here
D/f#  G       D/f#  G
Everywhere in every gear

Chorus:
    C  G       D       G
But oh Lord we pay the price
         F/c         C                          D
With the spin of the wheel with the roll of the dice
C  G        D        G
Ah yeah you pay your fare
           Bb                      F/c
And if you don't know where you're going
    C                  G
Any road will take you there

Intro again as interlude: G, C/g, G, D/f#, G, D/f#, G

e|---------------------------------------------------------------|
b|-9/11-9/11-9/11-----------------9-9-7-7------------------------|
g|-----------------12-9-12-----12----------9-7------7-0----------|
D|----------------------------------------------9----------------|
A|---------------------------------------------------------------|
E|---------------------------------------------------------------|

    G                    C               G
And I've been traveling through the dirt and the grime
         D/f#       G                  D/f#        G
G             C           G
Traveling deep beneath the waves
 D/f#       G          D/f#       G
In watery grottoes and mountainous caves

   C  G     D         G
But oh Lord we've got to fight
         F/C             C              D
With the thoughts in the head with the dark and the light
C   G      D       G
No use to stop and stare
       Bb                F/C
And if you don't know where you're going
  C               G
Any road will take you there
e|---------------------------------------------------------------|
b|------10-12-----------------10---------------------------------|
g|-9/11-------11-9-----11-12-----11-12-12-11--7------7-----------|
D|-----------------12---------------------------9b-7-------------|
A|---------------------------------------------------------------|
E|---------------------------------------------------------------|

Bridge:
Em
You may not know where you came from
D       C            G     C/g  G
May not know who you are
e|---------------------------|
b|---------------------------|
g|--------9b-9~--------------|
D|---------------------------|
A|---------------------------|
E|---------------------------|
Am           B7   Em
May not have even wondered
e|---------------------------|
b|--9b-----------------------|
g|-----9-7-9-7---7-9---------|
D|-------------9-------------|
A|---------------------------|
E|---------------------------|
D       A7       D
How you got this far
                 //\\
e|--------------//--\\-------|
b|----------15b//----\\(15)--|
g|---------------------------|
D|---------------------------|
A|---------------------------|
E|---------------------------|

G                     C      G
I've been traveling on a wing and a prayer
      D/f#       G           D/f#     G
By the skin of my teeth by the breadth of a hair
G            C          G
Traveling where the four winds blow
D/f#     G                D/f#            G
With the sun on my face - in the ice and the snow

C       G     D     G
But oooeeee it's a game
   F/C          C                D
Sometimes you're cool, sometimes you're lame
C   G    D      G
Ah yeah it's somewhere
         Bb              F/C
And if you don't know where you're going
   C              G
Any road will take you there
e|---------------------------------------------------------------|
b|---------------------------------------------------------------|
g|-9/11-14p11-14b-11-14--------14--------11----------------------|
D|---------------------------------------------------------------|
A|----------------------14b-12----14b-12-------------------------|
E|---------------------------------------------------------------|

e|---------------------------------------------------------------|
b|---------------------------------------------------------------|
g|-9/11-14-11-14-11-14-14b-11-14--------14----------9b-----------|
D|---------------------------------------------------------------|
A|-------------------------------14b-12-----14b-12---------------|
E|---------------------------------------------------------------|

   C  G     D        G
But oh Lord we pay the price
      F/C           C                D
With the spin of the wheel with the roll of the dice
C   G     D      G
Ah yeah, you pay your fare
     F/C                  F/C
And if you don't know where you're going
  C               G
Any road will take you there
e|---------------------------------------------------------------|
b|-12/15-15-12---------12-------------------------------15-------|
g|-------------14---11----11-9-7--------------11-----------------|
D|-------------------------------14-12-14b-12----14b-12----------|
A|---------------------------------------------------------------|
E|---------------------------------------------------------------|

G                 C     G
I keep travelling around the bend
        D/f#   G        D/f#      G
There was no beginning, there is no end
G           C       G
It wasn't born and never dies
     D/f#     G       D/f#      G
There are no edges, there is no size
C    G        D        G
Oh yeah, you just don't win
  F/C       C              D
It's so far out - the way out is in
C       G       D      G
Bow to God and call him Sir
        Bb                 F/C            ___
But if you don't know where you're going     |
   C             G                           |
Any road will take you there              ___|X3

D G D A D A D - 4x

e|---------------------------------------------------------------|
b|----15---------------------------------------------------------|
g|-14----14h16-14----16-14----------------------14---------------|
D|----------------16-------14b--12-14-12------------12-14b-12-12-|
A|---------------------------------------14b-12------------------|
E|---------------------------------------------------------------|

e|---------------------------------------------------------------|
b|--15---17-17b-----------------------------------15~------------|
g|--------------16-16-14------------11---------------------------|
D|------------------------12-14b-12----12-14b-12-----------------|
A|---------------------------------------------------------------|
E|---------------------------------------------------------------|
            

comments powered by Disqus
↑ Back to top | George Harrison Tabs for Any Road. Lyrics for acoustic guitar and electric guitar. Tablatures and chords are parodies/interpretations of the original songs. You may use it for private study, scholarship, research or language learning purposes only