» » »

George Frideric Handel, Largo Tabs (ver.1)

Artists:  A B C D E F G H I J K L M N O P Q R S T U V W X Y Z # 

Largo Tabs (ver.1)

George Frideric Handel Tabs
 Rating:
4.2/5 (5 votes)
Largo lessons Tabs too difficult? Try these video lessons and learn fast
                ----------------------------------------------------------------------------
                     Largo - Georg Friedrich Handel
----------------------------------------------------------------------------



Tuning: Standard



  
E|-----------------|------------------|-----------------|------------------|
B|--3--------------|-------0----------|--0----0----0----|--0----0----1-----|
G|--0----0----0----|--2----2----2---0-|--0--------------|------------0-----|
D|--0----0----0----|--4----4----4-----|--2----2----2----|--0----4----2---0-|
A|-----------------|--5----5----5-----|-----------------|-------5----3-----|
E|-----------------|------------------|-----------------|------------------|

 
-----------------|---------------------|------------------|--0----0----2----|
-----------------|------------------0--|------------------|--1---------3----|
--0----0----0----|--0---------0--2-----|--2------------2--|--2----2----5----|
--0--------------|--2----4-------------|--4----4----4--4--|--4----4---------|
--2----2----2----|--3----3----2--------|--5----5----5--5--|-------3---------|
--3----3----3----|-------5----3--------|------------------|-----------------|

 
--3---------------|--0--0--0----------|-----------------|------------------|
--3-------3--3----|--1-----1-------0--|--3----0---------|------------------|
--0----0-----4----|--0-----0----------|--0----0----0----|------------------|
------------------|-------------4-----|--0----0----0----|-------4----2---0-|
-------2----------|-------------5-----|------------2----|--3----3----3-----|
------------------|-------------------|------------3----|--5----5----5-----|

   
-----------------|-----------------|------------------|--2----2----0----|
-----------------|--1----1----0----|------------------|--1----1----0----|
--0--------------|--0----2----0----|--2-------0--0----|-----------------|
--0--------------|--2----0----0----|--2----0-----0----|--4----4----2----|
--2----2----2----|-----------------|--3----3-----2----|--0----0---------|
-------3----3----|--0----2----3----|------------------|------------3----|

   
----------0---0----|-------------------|-----------------|------------------|
--4----0----3-1----|--1----------------|-------1---------|-------0-----0----|
--2-----------0----|--2--2-------------|-------2----0----|-------0--2--0----|
--1----7------2----|--2-----4----7--2--|--2----2----2----|--0----0-----0----|
-------6------3----|--------7----6-----|--2---------0----|------------------|
--2----7-----------|--------7----7-----|--3--------------|------------------|

    
-------------0----|------------------|-----------------|--3----3----2----|
------------------|-------3--------0-|--0---------3----|--0----0----0----|
--2---0-2----2----|--2----0----5-----|--0----0---------|--0----0----0----|
--4---2-4----2----|--2----0----4-----|--0----0----4----|-----------------|
--5-----5----3----|--3----2----5-----|------------5----|--2----2----2----|
------------------|------------5-----|--3---------5----|-----------------|

  
--2----0----------|-------------------|----------0-------|----------------2-|
--1--------3-3----|--3--2--1-------1--|--3----------3----|--1--0----------3-|
--0----0----------|--0-----0----0-----|--2----2-----0----|--0-----2-------0-|
-------------4----|--2----------2-----|--4----4----------|--2-----0----4----|
--3----3-----5----|--------0----------|--5----3-----2----|--3----------5----|
------------------|-------------------|------------------|------------------|


--3----------------|---------------|----------------------|----------------|
-----3--1--0--1----|---------------|-----0--1--0----------|--0-------------|
-------------------|---------------|--2-------------2---0-|--0-------------|
--5----------------|---------------|--2--------0----4-----|----------------|
-------------------|---------------|----------------------|-------2--------|
-------------------|---------------|----------------------|-------3--------|

    
----------------||
----------------||
--0-------------||
----------------||
--2-------------||
--3-------------||

| /  slide up
| \  slide down
| h  hammer-on
| p  pull-off
| ~  vibrato
| +  harmonic
| x  Mute note
===========================================================================
            
Submit corrections

comments powered by Disqus
↑ Back to top | George Frideric Handel Tabs for Largo. Lyrics for acoustic guitar and electric guitar. Tablatures and chords are parodies/interpretations of the original songs. You may use it for private study, scholarship, research or language learning purposes only