» » »

George Frideric Handel, Allegro Maestoso Tabs (ver.1)

Artists:  A B C D E F G H I J K L M N O P Q R S T U V W X Y Z # 

Allegro Maestoso Tabs (ver.1)

George Frideric Handel Tabs
 Rating:
4/5 (4 votes)
Allegro Maestoso lessons Tabs too difficult? Try these video lessons and learn fast
                                                ALLEGRO MAESTOSO
                      As recorded by George Frideric Handel

Music by George Frideric Handel
Arranged by Mark Phillips

Gtr I (D A D G B E) - 'Untitled'

  Q=136
 4/4
          Gtr I
  H.      Q      Q  Q  Q  Q    H    H      Q  Q  Q  Q
|------------||-----2--0-----|-5----2----|-7--5--3--2--|
|------------||o-3--3--2--3--|-3----3----|----7--5--3--|
|---------2--||--2--2--0-----|------4----|-7--7--6--2--|
|---------4--||--4--------4--|-----------|----------0--|
|---------5--||o-5-----0--2--|------2----|----5--0-----|
|------------||--------------|-4---------|-5-----------|
                 H     H


  1.,2.,3.       4.
  Q  H    Q   4x Q  H    Q      Q  Q  Q  E E
|-3--2--------||-3--2----5--||--7--3--0--2-3-|
|-5--3-------o||-5--3----7--||o-3--0--2--3-5-|
|-2--2----2---||-2--2----7--||--0-----2--0---|
|---------4---||---------0--||---------------|
|-0-------5--o||-0----------||o--------------|
|----0--------||----0-------||---------------|
                                H     Q  Q


  Q  Q   Q  E E   Q  Q  Q  Q    E  E E E Q  E E   Q  E E  Q  E E
|-5--2------0-2-|-2--2--------|-0----0-2-0--2-3-|-5---------------|
|-3--3---3--0---|-3--3--5--3--|-2--3-2-3-2--3-5-|-7--7-8-10--8-7--|
|----0-2-4--0---|-0--2--2-----|----4------------|----7-9-11--9-7--|
|-4-------------|-2--4-----4--|-----------------|-----------------|
|---------------|-------4--5--|-0---------------|-----------------|
|---------------|-------------|-----------------|-4-------9-------|
  Q  E E Q  Q                   H.          Q     Q  Q    Q  Q


                                   1.             2.
  Q  E E Q  E E   Q  Q  Q     E E   H.      Q      H.      Q
|-3--0-2-3--2-0-|-2-----0tr2------|---------5---||-------------*|
|--------5--3-2-|-3--3--3-----2-3-|-3-------7--o||-3-----------*|
|----0----------|-------------2---|---------7---||-------------*|
|---------------|----4------------|-4-------0---||-4-----------*|
|--------0------|-------0---------|------------o||-------------*|
|-2-------------|-0---------------|-0-----------||-0-----------*|
  H      H        H     H



***************************************************************************************
***************************************************************************************
            
Submit corrections

comments powered by Disqus
↑ Back to top | George Frideric Handel Tabs for Allegro Maestoso. Lyrics for acoustic guitar and electric guitar. Tablatures and chords are parodies/interpretations of the original songs. You may use it for private study, scholarship, research or language learning purposes only